  0
SECTION
  2
HEADER
  9
$ACADVER
  1
AC1015
  9
$ACADMAINTVER
 70
     6
  9
$DWGCODEPAGE
  3
ANSI_1252
  9
$INSBASE
 10
0.0
 20
0.0
 30
0.0
  9
$EXTMIN
 10
-70.0
 20
-50.0
 30
0.0
  9
$EXTMAX
 10
70.0
 20
50.0
 30
0.0
  9
$LIMMIN
 10
0.0
 20
0.0
  9
$LIMMAX
 10
420.0
 20
297.0
  9
$ORTHOMODE
 70
     0
  9
$REGENMODE
 70
     1
  9
$FILLMODE
 70
     1
  9
$QTEXTMODE
 70
     0
  9
$MIRRTEXT
 70
     1
  9
$LTSCALE
 40
1.0
  9
$ATTMODE
 70
     1
  9
$TEXTSIZE
 40
3.5
  9
$TRACEWID
 40
1.0
  9
$TEXTSTYLE
  7
Standard
  9
$CLAYER
  8
0
  9
$CELTYPE
  6
ByLayer
  9
$CECOLOR
 62
   256
  9
$CELTSCALE
 40
1.0
  9
$DISPSILH
 70
     0
  9
$DIMSCALE
 40
1.0
  9
$DIMASZ
 40
6.0
  9
$DIMEXO
 40
1.0
  9
$DIMDLI
 40
3.75
  9
$DIMRND
 40
0.0
  9
$DIMDLE
 40
0.0
  9
$DIMEXE
 40
1.0
  9
$DIMTP
 40
0.0
  9
$DIMTM
 40
0.0
  9
$DIMTXT
 40
3.5
  9
$DIMCEN
 40
2.5
  9
$DIMTSZ
 40
0.0
  9
$DIMTOL
 70
     0
  9
$DIMLIM
 70
     0
  9
$DIMTIH
 70
     1
  9
$DIMTOH
 70
     1
  9
$DIMSE1
 70
     0
  9
$DIMSE2
 70
     0
  9
$DIMTAD
 70
     1
  9
$DIMZIN
 70
     0
  9
$DIMBLK
  1

  9
$DIMASO
 70
     1
  9
$DIMSHO
 70
     1
  9
$DIMPOST
  1

  9
$DIMAPOST
  1

  9
$DIMALT
 70
     0
  9
$DIMALTD
 70
     3
  9
$DIMALTF
 40
0.0393700787
  9
$DIMLFAC
 40
1.0
  9
$DIMTOFL
 70
     1
  9
$DIMTVP
 40
0.0
  9
$DIMTIX
 70
     0
  9
$DIMSOXD
 70
     0
  9
$DIMSAH
 70
     0
  9
$DIMBLK1
  1

  9
$DIMBLK2
  1

  9
$DIMSTYLE
  2
ISO-25
  9
$DIMCLRD
 70
     0
  9
$DIMCLRE
 70
     0
  9
$DIMCLRT
 70
     0
  9
$DIMTFAC
 40
1.0
  9
$DIMGAP
 40
1.524
  9
$DIMJUST
 70
     0
  9
$DIMSD1
 70
     0
  9
$DIMSD2
 70
     0
  9
$DIMTOLJ
 70
     0
  9
$DIMTZIN
 70
     0
  9
$DIMALTZ
 70
     0
  9
$DIMALTTZ
 70
     0
  9
$DIMUPT
 70
     0
  9
$DIMDEC
 70
     2
  9
$DIMTDEC
 70
     2
  9
$DIMALTU
 70
     2
  9
$DIMALTTD
 70
     3
  9
$DIMTXSTY
  7
Standard
  9
$DIMAUNIT
 70
     0
  9
$DIMADEC
 70
     2
  9
$DIMALTRND
 40
0.0
  9
$DIMAZIN
 70
     0
  9
$DIMDSEP
 70
    44
  9
$DIMATFIT
 70
     3
  9
$DIMFRAC
 70
     0
  9
$DIMLDRBLK
  1

  9
$DIMLUNIT
 70
     2
  9
$DIMLWD
 70
    -2
  9
$DIMLWE
 70
    -2
  9
$DIMTMOVE
 70
     0
  9
$LUNITS
 70
     2
  9
$LUPREC
 70
     2
  9
$SKETCHINC
 40
1.0
  9
$FILLETRAD
 40
10.0
  9
$AUNITS
 70
     0
  9
$AUPREC
 70
     2
  9
$MENU
  1
.
  9
$ELEVATION
 40
0.0
  9
$PELEVATION
 40
0.0
  9
$THICKNESS
 40
0.0
  9
$LIMCHECK
 70
     0
  9
$CHAMFERA
 40
0.0
  9
$CHAMFERB
 40
0.0
  9
$CHAMFERC
 40
0.0
  9
$CHAMFERD
 40
0.0
  9
$SKPOLY
 70
     0
  9
$TDCREATE
 40
2458226.560699815
  9
$TDUCREATE
 40
2458226.852366481
  9
$TDUPDATE
 40
2458226.560801516
  9
$TDUUPDATE
 40
2458226.852468183
  9
$TDINDWG
 40
0.0000000116
  9
$TDUSRTIMER
 40
0.0000000116
  9
$USRTIMER
 70
     1
  9
$ANGBASE
 50
0.0
  9
$ANGDIR
 70
     0
  9
$PDMODE
 70
     0
  9
$PDSIZE
 40
-1.0
  9
$PLINEWID
 40
0.0
  9
$SPLFRAME
 70
     0
  9
$SPLINETYPE
 70
     6
  9
$SPLINESEGS
 70
     8
  9
$HANDSEED
  5
1C3
  9
$SURFTAB1
 70
     6
  9
$SURFTAB2
 70
     6
  9
$SURFTYPE
 70
     6
  9
$SURFU
 70
     6
  9
$SURFV
 70
     6
  9
$UCSBASE
  2

  9
$UCSNAME
  2

  9
$UCSORG
 10
0.0
 20
0.0
 30
0.0
  9
$UCSXDIR
 10
1.0
 20
0.0
 30
0.0
  9
$UCSYDIR
 10
0.0
 20
1.0
 30
0.0
  9
$UCSORTHOREF
  2

  9
$UCSORTHOVIEW
 70
     0
  9
$UCSORGTOP
 10
0.0
 20
0.0
 30
0.0
  9
$UCSORGBOTTOM
 10
0.0
 20
0.0
 30
0.0
  9
$UCSORGLEFT
 10
0.0
 20
0.0
 30
0.0
  9
$UCSORGRIGHT
 10
0.0
 20
0.0
 30
0.0
  9
$UCSORGFRONT
 10
0.0
 20
0.0
 30
0.0
  9
$UCSORGBACK
 10
0.0
 20
0.0
 30
0.0
  9
$PUCSBASE
  2

  9
$PUCSNAME
  2

  9
$PUCSORG
 10
0.0
 20
0.0
 30
0.0
  9
$PUCSXDIR
 10
1.0
 20
0.0
 30
0.0
  9
$PUCSYDIR
 10
0.0
 20
1.0
 30
0.0
  9
$PUCSORTHOREF
  2

  9
$PUCSORTHOVIEW
 70
     0
  9
$PUCSORGTOP
 10
0.0
 20
0.0
 30
0.0
  9
$PUCSORGBOTTOM
 10
0.0
 20
0.0
 30
0.0
  9
$PUCSORGLEFT
 10
0.0
 20
0.0
 30
0.0
  9
$PUCSORGRIGHT
 10
0.0
 20
0.0
 30
0.0
  9
$PUCSORGFRONT
 10
0.0
 20
0.0
 30
0.0
  9
$PUCSORGBACK
 10
0.0
 20
0.0
 30
0.0
  9
$USERI1
 70
     0
  9
$USERI2
 70
     0
  9
$USERI3
 70
     0
  9
$USERI4
 70
     0
  9
$USERI5
 70
     0
  9
$USERR1
 40
0.0
  9
$USERR2
 40
0.0
  9
$USERR3
 40
0.0
  9
$USERR4
 40
0.0
  9
$USERR5
 40
0.0
  9
$WORLDVIEW
 70
     1
  9
$SHADEDGE
 70
     3
  9
$SHADEDIF
 70
    70
  9
$TILEMODE
 70
     1
  9
$MAXACTVP
 70
    64
  9
$PINSBASE
 10
0.0
 20
0.0
 30
0.0
  9
$PLIMCHECK
 70
     0
  9
$PEXTMIN
 10
-70.0
 20
0.0
 30
0.0
  9
$PEXTMAX
 10
70.0
 20
15.875
 30
0.0
  9
$PLIMMIN
 10
-80.8949416342
 20
-4.0856031128
  9
$PLIMMAX
 10
80.8949416342
 20
110.3112840467
  9
$UNITMODE
 70
     0
  9
$VISRETAIN
 70
     1
  9
$PLINEGEN
 70
     0
  9
$PSLTSCALE
 70
     1
  9
$TREEDEPTH
 70
  3020
  9
$CMLSTYLE
  2
Standard
  9
$CMLJUST
 70
     0
  9
$CMLSCALE
 40
20.0
  9
$PROXYGRAPHICS
 70
     1
  9
$MEASUREMENT
 70
     1
  9
$CELWEIGHT
370
    -1
  9
$ENDCAPS
280
     0
  9
$JOINSTYLE
280
     0
  9
$LWDISPLAY
290
     1
  9
$INSUNITS
 70
     4
  9
$HYPERLINKBASE
  1

  9
$STYLESHEET
  1

  9
$XEDIT
290
     1
  9
$CEPSNTYPE
380
     0
  9
$PSTYLEMODE
290
     1
  9
$FINGERPRINTGUID
  2
{9F5EA9C0-8D7F-4151-8674-1339FE26FE6D}
  9
$VERSIONGUID
  2
{FAEB1C32-E019-11D5-929B-00C0DF256EC4}
  9
$EXTNAMES
290
     1
  9
$PSVPSCALE
 40
0.0
  9
$OLESTARTUP
290
     0
  0
ENDSEC
  0
SECTION
  2
CLASSES
  0
CLASS
  1
ACDBDICTIONARYWDFLT
  2
AcDbDictionaryWithDefault
  3
ObjectDBX Classes
 90
        0
280
     0
281
     0
  0
CLASS
  1
VISUALSTYLE
  2
AcDbVisualStyle
  3
ObjectDBX Classes
 90
     4095
280
     0
281
     0
  0
CLASS
  1
MATERIAL
  2
AcDbMaterial
  3
ObjectDBX Classes
 90
     1153
280
     0
281
     0
  0
CLASS
  1
SCALE
  2
AcDbScale
  3
ObjectDBX Classes
 90
     1153
280
     0
281
     0
  0
CLASS
  1
TABLESTYLE
  2
AcDbTableStyle
  3
ObjectDBX Classes
 90
     4095
280
     0
281
     0
  0
CLASS
  1
MLEADERSTYLE
  2
AcDbMLeaderStyle
  3
ACDB_MLEADERSTYLE_CLASS
 90
     4095
280
     0
281
     0
  0
CLASS
  1
SUN
  2
AcDbSun
  3
SCENEOE
 90
     1153
280
     0
281
     0
  0
CLASS
  1
ACDBPLACEHOLDER
  2
AcDbPlaceHolder
  3
ObjectDBX Classes
 90
        0
280
     0
281
     0
  0
CLASS
  1
LAYOUT
  2
AcDbLayout
  3
ObjectDBX Classes
 90
        0
280
     0
281
     0
  0
ENDSEC
  0
SECTION
  2
TABLES
  0
TABLE
  2
VPORT
  5
8
330
0
100
AcDbSymbolTable
 70
     1
  0
VPORT
  5
29
330
8
100
AcDbSymbolTableRecord
100
AcDbViewportTableRecord
  2
*Active
 70
     0
 10
0.0
 20
0.0
 11
1.0
 21
1.0
 12
0.0
 22
0.0
 13
0.0
 23
0.0
 14
10.0
 24
10.0
 15
10.0
 25
10.0
 16
0.0
 26
0.0
 36
1.0
 17
0.0
 27
0.0
 37
0.0
 40
102.0
 41
1.4
 42
50.0
 43
0.0
 44
0.0
 50
0.0
 51
0.0
 71
     0
 72
   100
 73
     1
 74
     3
 75
     0
 76
     0
 77
     0
 78
     0
281
     0
 65
     1
110
0.0
120
0.0
130
0.0
111
1.0
121
0.0
131
0.0
112
0.0
122
1.0
132
0.0
 79
     0
146
0.0
  0
ENDTAB
  0
TABLE
  2
LTYPE
  5
5
330
0
100
AcDbSymbolTable
 70
     6
  0
LTYPE
  5
14
330
5
100
AcDbSymbolTableRecord
100
AcDbLinetypeTableRecord
  2
ByBlock
 70
     0
  3

 72
    65
 73
     0
 40
0.0
  0
LTYPE
  5
15
330
5
100
AcDbSymbolTableRecord
100
AcDbLinetypeTableRecord
  2
ByLayer
 70
     0
  3

 72
    65
 73
     0
 40
0.0
  0
LTYPE
  5
16
330
5
100
AcDbSymbolTableRecord
100
AcDbLinetypeTableRecord
  2
Continuous
 70
     0
  3
Solid line
 72
    65
 73
     0
 40
0.0
  0
LTYPE
  5
6E
330
5
100
AcDbSymbolTableRecord
100
AcDbLinetypeTableRecord
  2
HIDDEN
 70
     0
  3
Hidden __ __ __ __ __ __ __ __ __ __ __ __ __ __
 72
    65
 73
     2
 40
1.905
 49
1.27
 74
     0
 49
-0.635
 74
     0
  0
LTYPE
  5
6F
330
5
100
AcDbSymbolTableRecord
100
AcDbLinetypeTableRecord
  2
PHANTOM
 70
     0
  3
Phantom ______  __  __  ______  __  __  ______
 72
    65
 73
     6
 40
12.7
 49
6.35
 74
     0
 49
-1.27
 74
     0
 49
1.27
 74
     0
 49
-1.27
 74
     0
 49
1.27
 74
     0
 49
-1.27
 74
     0
  0
LTYPE
  5
70
330
5
100
AcDbSymbolTableRecord
100
AcDbLinetypeTableRecord
  2
CENTER
 70
     0
  3
Center ____ _ ____ _ ____ _ ____ _ ____ _ ____
 72
    65
 73
     4
 40
10.16
 49
6.35
 74
     0
 49
-1.27
 74
     0
 49
1.27
 74
     0
 49
-1.27
 74
     0
  0
LTYPE
  5
71
330
5
100
AcDbSymbolTableRecord
100
AcDbLinetypeTableRecord
  2
CENTERX2
 70
     0
  3
Center (2x) ________  __  ________  __  _____
 72
    65
 73
     4
 40
20.32
 49
12.7
 74
     0
 49
-2.54
 74
     0
 49
2.54
 74
     0
 49
-2.54
 74
     0
  0
LTYPE
  5
72
330
5
100
AcDbSymbolTableRecord
100
AcDbLinetypeTableRecord
  2
DOT2
 70
     0
  3
Dot (.5x) ........................................
 72
    65
 73
     2
 40
0.635
 49
0.0
 74
     0
 49
-0.635
 74
     0
  0
ENDTAB
  0
TABLE
  2
LAYER
  5
2
330
0
100
AcDbSymbolTable
 70
     1
  0
LAYER
  5
10
330
2
100
AcDbSymbolTableRecord
100
AcDbLayerTableRecord
  2
0
 70
     0
 62
     7
  6
Continuous
370
    -3
390
F
  0
ENDTAB
  0
TABLE
  2
STYLE
  5
3
330
0
100
AcDbSymbolTable
 70
     1
  0
STYLE
  5
11
330
3
100
AcDbSymbolTableRecord
100
AcDbTextStyleTableRecord
  2
Standard
 70
     0
 40
0.0
 41
1.0
 50
0.0
 71
     0
 42
3.5
  3
txt
  4

  0
ENDTAB
  0
TABLE
  2
VIEW
  5
6
330
0
100
AcDbSymbolTable
 70
     0
  0
ENDTAB
  0
TABLE
  2
UCS
  5
7
330
0
100
AcDbSymbolTable
 70
     0
  0
ENDTAB
  0
TABLE
  2
APPID
  5
9
330
0
100
AcDbSymbolTable
 70
     1
  0
APPID
  5
12
330
9
100
AcDbSymbolTableRecord
100
AcDbRegAppTableRecord
  2
ACAD
 70
     0
  0
ENDTAB
  0
TABLE
  2
DIMSTYLE
  5
A
330
0
100
AcDbSymbolTable
 70
     1
100
AcDbDimStyleTable
  0
DIMSTYLE
105
27
330
A
100
AcDbSymbolTableRecord
100
AcDbDimStyleTableRecord
  2
ISO-25
 70
     0
 41
2.5
 42
0.625
 43
3.75
 44
1.25
 73
     0
 74
     0
 77
     1
 78
     8
140
2.5
141
2.5
143
0.0393700787
147
0.625
171
     3
172
     1
178
     0
271
     2
272
     2
274
     3
278
    44
283
     0
284
     8
340
11
  0
ENDTAB
  0
TABLE
  2
BLOCK_RECORD
  5
1
330
0
100
AcDbSymbolTable
 70
     1
  0
BLOCK_RECORD
  5
1F
330
1
100
AcDbSymbolTableRecord
100
AcDbBlockTableRecord
  2
*Model_Space
340
22
  0
BLOCK_RECORD
  5
1B
330
1
100
AcDbSymbolTableRecord
100
AcDbBlockTableRecord
  2
*Paper_Space
340
1E
  0
BLOCK_RECORD
  5
23
330
1
100
AcDbSymbolTableRecord
100
AcDbBlockTableRecord
  2
*Paper_Space0
340
26
  0
ENDTAB
  0
ENDSEC
  0
SECTION
  2
BLOCKS
  0
BLOCK
  5
20
330
1F
100
AcDbEntity
  8
0
100
AcDbBlockBegin
  2
*Model_Space
 70
     0
 10
0.0
 20
0.0
 30
0.0
  3
*Model_Space
  1

  0
ENDBLK
  5
21
330
1F
100
AcDbEntity
  8
0
100
AcDbBlockEnd
  0
BLOCK
  5
1C
330
1B
100
AcDbEntity
 67
     1
  8
0
100
AcDbBlockBegin
  2
*Paper_Space
 70
     0
 10
0.0
 20
0.0
 30
0.0
  3
*Paper_Space
  1

  0
ENDBLK
  5
1D
330
1B
100
AcDbEntity
 67
     1
  8
0
100
AcDbBlockEnd
  0
BLOCK
  5
24
330
23
100
AcDbEntity
  8
0
100
AcDbBlockBegin
  2
*Paper_Space0
 70
     0
 10
0.0
 20
0.0
 30
0.0
  3
*Paper_Space0
  1

  0
ENDBLK
  5
25
330
23
100
AcDbEntity
  8
0
100
AcDbBlockEnd
  0
ENDSEC
  0
SECTION
  2
ENTITIES
  0
SPLINE
  5
79
330
1F
100
AcDbEntity
  8
0
  6
Continuous
 62
     7
370
    25
100
AcDbSpline
210
0.0
220
0.0
230
1.0
 70
     8
 71
     3
 72
    31
 73
    27
 74
     0
 42
0.000000001
 43
0.00000001
 40
0.0
 40
0.0
 40
0.0
 40
0.0
 40
0.0337881161627101
 40
0.0671939323738796
 40
0.0998624108568249
 40
0.1325666121262584
 40
0.1651511732547857
 40
0.1979131873557923
 40
0.2313190035669615
 40
0.2650832782673733
 40
0.2992553087581148
 40
0.3343985665049782
 40
0.3699428235093072
 40
0.4062835607000606
 40
0.4440638196985081
 40
0.4829977068727753
 40
0.5233544466133043
 40
0.5655365896041491
 40
0.6096129240658194
 40
0.6563908113764172
 40
0.7058854949364571
 40
0.758324500261731
 40
0.81383178294115
 40
0.87279455903939
 40
0.934722229540074
 40
1.0
 40
1.0
 40
1.0
 40
1.0
 10
5.542018662922629
 20
2.758048713619964
 30
0.0
 10
5.569854141406971
 20
2.7575608984443
 30
0.0
 10
5.625210150302655
 20
2.756590787540019
 30
0.0
 10
5.707050525548572
 20
2.747266845005414
 30
0.0
 10
5.787000207263168
 20
2.73179572190848
 30
0.0
 10
5.864718345966651
 20
2.70987474732582
 30
0.0
 10
5.940843332434426
 20
2.682679070666396
 30
0.0
 10
6.014779740080076
 20
2.648591953557227
 30
0.0
 10
6.086986821722129
 20
2.60891308621276
 30
0.0
 10
6.156317109242022
 20
2.562289208906132
 30
0.0
 10
6.223531724588106
 20
2.510306932709372
 30
0.0
 10
6.286979687560197
 20
2.45154426390603
 30
0.0
 10
6.346666773457658
 20
2.386594544637373
 30
0.0
 10
6.403342078843889
 20
2.316152680750764
 30
0.0
 10
6.45539767604314
 20
2.238867595917184
 30
0.0
 10
6.504971108278571
 20
2.156083486103038
 30
0.0
 10
6.549343144180233
 20
2.06635262130923
 30
0.0
 10
6.592077819358833
 20
1.971172153468184
 30
0.0
 10
6.628964806098074
 20
1.867908494661518
 30
0.0
 10
6.662231051370387
 20
1.757143734143428
 30
0.0
 10
6.68911001994532
 20
1.637569547290085
 30
0.0
 10
6.711499292283459
 20
1.509813301994977
 30
0.0
 10
6.728844188229071
 20
1.373405818754816
 30
0.0
 10
6.741476830307622
 20
1.228639503243057
 30
0.0
 10
6.748149915348955
 20
1.075419112602291
 30
0.0
 10
6.749406616555629
 20
0.97066126342513
 30
0.0
 10
6.75005151548673
 20
0.9169028802866303
 30
0.0
  0
SPLINE
  5
7A
330
1F
100
AcDbEntity
  8
0
  6
Continuous
 62
     7
370
    25
100
AcDbSpline
210
0.0
220
0.0
230
1.0
 70
     8
 71
     3
 72
    31
 73
    27
 74
     0
 42
0.000000001
 43
0.00000001
 40
0.0
 40
0.0
 40
0.0
 40
0.0
 40
0.0685946222587425
 40
0.1332460424433009
 40
0.1943125864682562
 40
0.2512792231169663
 40
0.3045134392563465
 40
0.3542349066533249
 40
0.4004805887739887
 40
0.4434107549384915
 40
0.4840148686163451
 40
0.5232523007732026
 40
0.5610423727283594
 40
0.5979002393643996
 40
0.6335184888561948
 40
0.6683143511696507
 40
0.7024956712863818
 40
0.7366853535134588
 40
0.7702931693607883
 40
0.8034372550192493
 40
0.8359129516660287
 40
0.86846024578929
 40
0.9008465382431824
 40
0.9334665246307078
 40
0.9662575752981233
 40
1.0
 40
1.0
 40
1.0
 40
1.0
 10
4.371846387281601
 20
0.9169028802866303
 30
0.0
 10
4.372174405439067
 20
0.9730002680208796
 30
0.0
 10
4.372811585437917
 20
1.081970252268346
 30
0.0
 10
4.379900006380153
 20
1.240754894335146
 30
0.0
 10
4.391675348693327
 20
1.389715183330323
 30
0.0
 10
4.407812721543607
 20
1.528858249368749
 30
0.0
 10
4.427450701767193
 20
1.65822001388646
 30
0.0
 10
4.453666188368515
 20
1.777454771022759
 30
0.0
 10
4.483478990983472
 20
1.887114377635821
 30
0.0
 10
4.518031436793977
 20
1.987556426111841
 30
0.0
 10
4.557019225812323
 20
2.080134129134001
 30
0.0
 10
4.599453486534389
 20
2.166559330427766
 30
0.0
 10
4.647018280957962
 20
2.246701262767542
 30
0.0
 10
4.696995193885073
 20
2.321839053187486
 30
0.0
 10
4.751407265512881
 20
2.390742747979826
 30
0.0
 10
4.808706055980132
 20
2.454385410498352
 30
0.0
 10
4.871127932247258
 20
2.511296160962159
 30
0.0
 10
4.936550940520706
 20
2.563142463347236
 30
0.0
 10
5.005567404912423
 20
2.608591935019182
 30
0.0
 10
5.076210071055629
 20
2.648624673634938
 30
0.0
 10
5.148965176911563
 20
2.682824540892546
 30
0.0
 10
5.224031359809495
 20
2.709714976752088
 30
0.0
 10
5.300733917699179
 20
2.731925823524699
 30
0.0
 10
5.379340984390473
 20
2.747114771171269
 30
0.0
 10
5.459982348326793
 20
2.756671679660657
 30
0.0
 10
5.514413783124942
 20
2.757585347400854
 30
0.0
 10
5.542018662922629
 20
2.758048713619964
 30
0.0
  0
SPLINE
  5
7B
330
1F
100
AcDbEntity
  8
0
  6
Continuous
 62
     7
370
    25
100
AcDbSpline
210
0.0
220
0.0
230
1.0
 70
     8
 71
     3
 72
    31
 73
    27
 74
     0
 42
0.000000001
 43
0.00000001
 40
0.0
 40
0.0
 40
0.0
 40
0.0
 40
0.0337871463469909
 40
0.0666216577242938
 40
0.0992848780959724
 40
0.1313611650426513
 40
0.1635851875953433
 40
0.1961039269870678
 40
0.2289022543238166
 40
0.2621580559050073
 40
0.2959912222583165
 40
0.3302178457247997
 40
0.3650598258919538
 40
0.4009507373401078
 40
0.4376203820767375
 40
0.4757075294370918
 40
0.5153806916250483
 40
0.5564135414931646
 40
0.5997648298727314
 40
0.6464241555840872
 40
0.6964314445175667
 40
0.7497815178015576
 40
0.8065733069755324
 40
0.8674355315653995
 40
0.9318867532508741
 40
1.0
 40
1.0
 40
1.0
 40
1.0
 10
5.542018662922629
 20
-0.9214384658672159
 30
0.0
 10
5.514414548937374
 20
-0.9209721104084069
 30
0.0
 10
5.459984624171862
 20
-0.9200525484709898
 30
0.0
 10
5.379332198732414
 20
-0.9105388169828015
 30
0.0
 10
5.301049755292466
 20
-0.895243313770447
 30
0.0
 10
5.22475100125486
 20
-0.8738267096793632
 30
0.0
 10
5.150044486171173
 20
-0.8476118733639247
 30
0.0
 10
5.077948199515379
 20
-0.8134581897609421
 30
0.0
 10
5.007660515824706
 20
-0.7741241208049766
 30
0.0
 10
4.939368959806622
 20
-0.7293286993666929
 30
0.0
 10
4.874356798766793
 20
-0.6780070162383032
 30
0.0
 10
4.812258193452953
 20
-0.6212427275518124
 30
0.0
 10
4.754633174355987
 20
-0.5576193162543951
 30
0.0
 10
4.700999078738655
 20
-0.4881413931466786
 30
0.0
 10
4.650024990542919
 20
-0.4134481508139266
 30
0.0
 10
4.603135617223667
 20
-0.3325197777685056
 30
0.0
 10
4.559764763155613
 20
-0.2456771672788982
 30
0.0
 10
4.520121272487081
 20
-0.1523592566038013
 30
0.0
 10
4.484972608972163
 20
-0.0512043287440138
 30
0.0
 10
4.453924900858745
 20
0.0589448497584755
 30
0.0
 10
4.42941074338868
 20
0.1790604858725174
 30
0.0
 10
4.408427788055801
 20
0.3081778529779012
 30
0.0
 10
4.391503405012302
 20
0.4468517833637458
 30
0.0
 10
4.379949079693932
 20
0.5951575615506391
 30
0.0
 10
4.372807764658176
 20
0.7530027704767873
 30
0.0
 10
4.372172694238055
 20
0.8612725447933947
 30
0.0
 10
4.371846387281601
 20
0.9169028802866303
 30
0.0
  0
SPLINE
  5
7C
330
1F
100
AcDbEntity
  8
0
  6
Continuous
 62
     7
370
    25
100
AcDbSpline
210
0.0
220
0.0
230
1.0
 70
     8
 71
     3
 72
    31
 73
    27
 74
     0
 42
0.000000001
 43
0.00000001
 40
0.0
 40
0.0
 40
0.0
 40
0.0
 40
0.0650632896172791
 40
0.1267731664665229
 40
0.1855157632260791
 40
0.2407646791677152
 40
0.2929797960235983
 40
0.3422503727797676
 40
0.3889192861856606
 40
0.4327756640583105
 40
0.4746284326311181
 40
0.514774690637954
 40
0.5536058934984428
 40
0.591426406431173
 40
0.6280281199460673
 40
0.6638036341103204
 40
0.6989843361316642
 40
0.733591489306706
 40
0.7676284691511404
 40
0.8012083477865922
 40
0.8342638397266241
 40
0.8669806947287765
 40
0.8997197415181609
 40
0.9327019124985387
 40
0.9661758834327498
 40
1.0
 40
1.0
 40
1.0
 40
1.0
 10
6.75005151548673
 20
0.9169028802866303
 30
0.0
 10
6.749399930942807
 20
0.8633789723457254
 30
0.0
 10
6.748130345031311
 20
0.7590898204868994
 30
0.0
 10
6.741551638263597
 20
0.6065588451671099
 30
0.0
 10
6.72859300708487
 20
0.4625608018685487
 30
0.0
 10
6.712383018776092
 20
0.3267503394098308
 30
0.0
 10
6.689932055802664
 20
0.1996927205768724
 30
0.0
 10
6.662326889551388
 20
0.0809482721089627
 30
0.0
 10
6.631676566729618
 20
-0.0299957995564637
 30
0.0
 10
6.593841772619816
 20
-0.1322306111664197
 30
0.0
 10
6.552431062272582
 20
-0.2271823340312117
 30
0.0
 10
6.507375866097203
 20
-0.3158494823609073
 30
0.0
 10
6.459106040011524
 20
-0.3990157750405476
 30
0.0
 10
6.406517295008499
 20
-0.4760155219717058
 30
0.0
 10
6.350463881812072
 20
-0.5473941790445747
 30
0.0
 10
6.28974609301908
 20
-0.6118918016961086
 30
0.0
 10
6.226075507917097
 20
-0.6710624736592528
 30
0.0
 10
6.158663092083146
 20
-0.7237141011214094
 30
0.0
 10
6.088251540850993
 20
-0.769798905757769
 30
0.0
 10
6.016292463926102
 20
-0.8110127561455905
 30
0.0
 10
5.941509080578819
 20
-0.8442454511954361
 30
0.0
 10
5.865596127849312
 20
-0.8727804921731915
 30
0.0
 10
5.787467761734359
 20
-0.8945809440593347
 30
0.0
 10
5.707221371044914
 20
-0.909654799579934
 30
0.0
 10
5.625265135116227
 20
-0.9202266480347098
 30
0.0
 10
5.569863570034971
 20
-0.921033127910014
 30
0.0
 10
5.542018662922629
 20
-0.9214384658672159
 30
0.0
  0
SPLINE
  5
8C
330
1F
100
AcDbEntity
  8
0
  6
Continuous
 62
     7
370
    25
100
AcDbSpline
210
0.0
220
0.0
230
1.0
 70
     8
 71
     3
 72
    23
 73
    19
 74
     0
 42
0.000000001
 43
0.00000001
 40
0.0
 40
0.0
 40
0.0
 40
0.0
 40
0.0787802355821394
 40
0.1537206442085844
 40
0.226713530308781
 40
0.2991911660659364
 40
0.3711899968376683
 40
0.4430064143534093
 40
0.51668917329488
 40
0.5932172166234128
 40
0.6338729178078465
 40
0.6769891422899794
 40
0.7228995063258277
 40
0.7719586105061442
 40
0.8242113233348357
 40
0.8793786506272023
 40
0.9379481193304182
 40
0.9999999999999999
 40
0.9999999999999999
 40
0.9999999999999999
 40
0.9999999999999999
 10
-8.640974125538914
 20
1.732307527722528
 30
0.0
 10
-8.642443123647407
 20
1.685672423111584
 30
0.0
 10
-8.645309519437049
 20
1.594675255223523
 30
0.0
 10
-8.67203462311707
 20
1.462614373814749
 30
0.0
 10
-8.715811142845826
 20
1.339425059174307
 30
0.0
 10
-8.776134431855139
 20
1.22526242125884
 30
0.0
 10
-8.85295390756862
 20
1.12235177589871
 30
0.0
 10
-8.945278698671979
 20
1.031961320594829
 30
0.0
 10
-9.053160310161651
 20
0.956321408004013
 30
0.0
 10
-9.15358962610083
 20
0.903868603302512
 30
0.0
 10
-9.242303825797471
 20
0.8702756946777566
 30
0.0
 10
-9.315337138585493
 20
0.8466393358187151
 30
0.0
 10
-9.39500411608132
 20
0.8283773705416366
 30
0.0
 10
-9.480541450687197
 20
0.8120172387710523
 30
0.0
 10
-9.572305106179298
 20
0.7996655443595289
 30
0.0
 10
-9.670075145568502
 20
0.7906189498901753
 30
0.0
 10
-9.773921297198592
 20
0.7849649011918904
 30
0.0
 10
-9.845260366551733
 20
0.7841228963029505
 30
0.0
 10
-9.881959702461987
 20
0.7836897392609894
 30
0.0
  0
SPLINE
  5
8D
330
1F
100
AcDbEntity
  8
0
  6
Continuous
 62
     7
370
    25
100
AcDbSpline
210
0.0
220
0.0
230
1.0
 70
     8
 71
     3
 72
    23
 73
    19
 74
     0
 42
0.000000001
 43
0.00000001
 40
0.0
 40
0.0
 40
0.0
 40
0.0
 40
0.0642168426314316
 40
0.1270637656931292
 40
0.18874453834783
 40
0.249132102835042
 40
0.309452532710628
 40
0.3698266762476819
 40
0.4306501418384687
 40
0.4923519318794692
 40
0.5540721062625169
 40
0.6156897837449753
 40
0.6767977025065393
 40
0.738439048246942
 40
0.8013169100648935
 40
0.8651845117115416
 40
0.9316413244190758
 40
1.0
 40
1.0
 40
1.0
 40
1.0
 10
-9.346302651179936
 20
2.620628841825092
 30
0.0
 10
-9.3206960270431
 20
2.614302076459523
 30
0.0
 10
-9.270029037571359
 20
2.601783512807614
 30
0.0
 10
-9.197078971531473
 20
2.575323911983971
 30
0.0
 10
-9.127564647579726
 20
2.544704287359267
 30
0.0
 10
-9.061774823258018
 20
2.508740567041192
 30
0.0
 10
-9.000039032067594
 20
2.467165787368662
 30
0.0
 10
-8.94172072127293
 20
2.420697664933514
 30
0.0
 10
-8.886555257892958
 20
2.369590459163045
 30
0.0
 10
-8.836773627712597
 20
2.312555617660381
 30
0.0
 10
-8.789834576018052
 20
2.252719107980388
 30
0.0
 10
-8.750245949517469
 20
2.188015351139208
 30
0.0
 10
-8.716119469794979
 20
2.120353823615189
 30
0.0
 10
-8.688948952794837
 20
2.04904640585971
 30
0.0
 10
-8.667070979321677
 20
1.97478463399709
 30
0.0
 10
-8.65164473995073
 20
1.896895837269884
 30
0.0
 10
-8.642393552319923
 20
1.815734862185973
 30
0.0
 10
-8.641451696766405
 20
1.760376953394358
 30
0.0
 10
-8.640974125538913
 20
1.732307527722528
 30
0.0
  0
SPLINE
  5
8E
330
1F
100
AcDbEntity
  8
0
  6
Continuous
 62
     7
370
    25
100
AcDbSpline
210
0.0
220
0.0
230
1.0
 70
     8
 71
     3
 72
    15
 73
    11
 74
     0
 42
0.000000001
 43
0.00000001
 40
0.0
 40
0.0
 40
0.0
 40
0.0
 40
0.1762577548178018
 40
0.3384344138804761
 40
0.4848220507878371
 40
0.6171575782663326
 40
0.7346983606124767
 40
0.8373851838323607
 40
0.9263724209295839
 40
1.0
 40
1.0
 40
1.0
 40
1.0
 10
-10.13927140117994
 20
2.668305123876374
 30
0.0
 10
-10.09253027266636
 20
2.668149537888339
 30
0.0
 10
-10.0027821282573
 20
2.66785079555656
 30
0.0
 10
-9.874208857897653
 20
2.666185032648414
 30
0.0
 10
-9.757381760897466
 20
2.661410676940181
 30
0.0
 10
-9.652361921580326
 20
2.657302093463061
 30
0.0
 10
-9.559151266604019
 20
2.649810152139916
 30
0.0
 10
-9.477463975856073
 20
2.642649505020112
 30
0.0
 10
-9.407676278354858
 20
2.633275844241163
 30
0.0
 10
-9.365430427052281
 20
2.624570421275532
 30
0.0
 10
-9.346302651179936
 20
2.620628841825092
 30
0.0
  0
CIRCLE
  5
BA
330
1F
100
AcDbEntity
  8
0
  6
Continuous
 62
     7
370
    25
100
AcDbCircle
 10
-60.0
 20
-40.0
 30
0.0
 40
3.399999999999991
  0
CIRCLE
  5
BB
330
1F
100
AcDbEntity
  8
0
  6
Continuous
 62
     7
370
    25
100
AcDbCircle
 10
-60.0
 20
40.0
 30
0.0
 40
3.399999999999991
  0
CIRCLE
  5
BC
330
1F
100
AcDbEntity
  8
0
  6
Continuous
 62
     7
370
    25
100
AcDbCircle
 10
60.0
 20
40.0
 30
0.0
 40
3.399999999999984
  0
CIRCLE
  5
BD
330
1F
100
AcDbEntity
  8
0
  6
Continuous
 62
     7
370
    25
100
AcDbCircle
 10
60.0
 20
-40.0
 30
0.0
 40
3.399999999999984
  0
SPLINE
  5
BE
330
1F
100
AcDbEntity
  8
0
  6
Continuous
 62
     7
370
    25
100
AcDbSpline
210
0.0
220
0.0
230
1.0
 70
     8
 71
     3
 72
    15
 73
    11
 74
     0
 42
0.000000001
 43
0.00000001
 40
0.0
 40
0.0
 40
0.0
 40
0.0
 40
0.1243285095938499
 40
0.247156016361187
 40
0.3687797492913395
 40
0.4907338624016481
 40
0.6136137718478439
 40
0.7389575757222155
 40
0.8673105751912625
 40
1.0
 40
1.0
 40
1.0
 40
1.0
 10
-14.52408710630814
 20
-0.3093591389441389
 30
0.0
 10
-14.55952274980794
 20
-0.2658179500270145
 30
0.0
 10
-14.62996622663571
 20
-0.1792612396189082
 30
0.0
 10
-14.72009191018686
 20
-0.0389752583604583
 30
0.0
 10
-14.79723946539613
 20
0.1074929505153625
 30
0.0
 10
-14.8596153861743
 20
0.2609128792936893
 30
0.0
 10
-14.90837811932893
 20
0.420940266534155
 30
0.0
 10
-14.94215931440868
 20
0.5876557809448484
 30
0.0
 10
-14.96411091888648
 20
0.7609037231470382
 30
0.0
 10
-14.96662120766765
 20
0.8787405118069308
 30
0.0
 10
-14.96789720246199
 20
0.9386376559276559
 30
0.0
  0
SPLINE
  5
BF
330
1F
100
AcDbEntity
  8
0
  6
Continuous
 62
     7
370
    25
100
AcDbSpline
210
0.0
220
0.0
230
1.0
 70
     8
 71
     3
 72
    23
 73
    19
 74
     0
 42
0.000000001
 43
0.00000001
 40
0.0
 40
0.0
 40
0.0
 40
0.0
 40
0.0696628008990778
 40
0.1377495622582733
 40
0.2039167435177836
 40
0.2687798623293377
 40
0.3324137064772243
 40
0.39475354044714
 40
0.4561800316591689
 40
0.51699564919672
 40
0.5773959379659527
 40
0.6371983435092754
 40
0.6969991842614552
 40
0.7567561942255594
 40
0.8165539052726082
 40
0.8769479965978708
 40
0.9381317879205956
 40
1.0
 40
1.0
 40
1.0
 40
1.0
 10
-13.08047733066712
 20
-0.9214384658672159
 30
0.0
 10
-13.11812099772482
 20
-0.9211764733114267
 30
0.0
 10
-13.19255668782156
 20
-0.9206584154755498
 30
0.0
 10
-13.30245543943369
 20
-0.9122662480645902
 30
0.0
 10
-13.40944502023534
 20
-0.900816511154601
 30
0.0
 10
-13.51321964610204
 20
-0.8835763800906294
 30
0.0
 10
-13.61434562114849
 20
-0.8632320400367434
 30
0.0
 10
-13.71190620563933
 20
-0.8359607834115221
 30
0.0
 10
-13.80686141599779
 20
-0.8054116168153793
 30
0.0
 10
-13.89882975669392
 20
-0.7695066300706501
 30
0.0
 10
-13.9878894564905
 20
-0.7289904475332698
 30
0.0
 10
-14.07375326785843
 20
-0.6831988886321557
 30
0.0
 10
-14.15638170025741
 20
-0.6325170239708717
 30
0.0
 10
-14.23658712111267
 20
-0.5780620135472254
 30
0.0
 10
-14.31318470478769
 20
-0.5180847116767816
 30
0.0
 10
-14.38683823013509
 20
-0.453418077173144
 30
0.0
 10
-14.4579607063677
 20
-0.3842800664217887
 30
0.0
 10
-14.50196339135946
 20
-0.3344252130794234
 30
0.0
 10
-14.52408710630814
 20
-0.3093591389441389
 30
0.0
  0
SPLINE
  5
C0
330
1F
100
AcDbEntity
  8
0
  6
Continuous
 62
     7
370
    25
100
AcDbSpline
210
0.0
220
0.0
230
1.0
 70
     8
 71
     3
 72
    23
 73
    19
 74
     0
 42
0.000000001
 43
0.00000001
 40
0.0
 40
0.0
 40
0.0
 40
0.0
 40
0.0616742388774261
 40
0.1230530616348063
 40
0.1834750007317025
 40
0.2437265005106117
 40
0.3042789165122542
 40
0.3648629209606832
 40
0.4259462039686199
 40
0.4873912299654086
 40
0.5492203840754762
 40
0.6111435886926031
 40
0.6735285303101519
 40
0.7369614566573043
 40
0.8007852828728406
 40
0.8660125956416155
 40
0.9321007477905793
 40
0.9999999999999999
 40
0.9999999999999999
 40
0.9999999999999999
 40
0.9999999999999999
 10
-11.55764079220558
 20
-0.1873639466364466
 30
0.0
 10
-11.5797589020867
 20
-0.21590239855976
 30
0.0
 10
-11.62388917735213
 20
-0.2728426048339034
 30
0.0
 10
-11.6953471943385
 20
-0.3531143145579603
 30
0.0
 10
-11.7706244917342
 20
-0.4286183500570931
 30
0.0
 10
-11.85028020174109
 20
-0.4987459712845774
 30
0.0
 10
-11.93339799333078
 20
-0.564900436889418
 30
0.0
 10
-12.02147030567544
 20
-0.625202268165117
 30
0.0
 10
-12.1133393381807
 20
-0.6804931524474868
 30
0.0
 10
-12.20869381708632
 20
-0.731120076959577
 30
0.0
 10
-12.30743242988595
 20
-0.7760373239840618
 30
0.0
 10
-12.40943686482794
 20
-0.8144910917760716
 30
0.0
 10
-12.51426744033195
 20
-0.847615981308605
 30
0.0
 10
-12.62192894874401
 20
-0.8748679180324859
 30
0.0
 10
-12.73264470557093
 20
-0.8961390019059444
 30
0.0
 10
-12.84601517966413
 20
-0.910358676750699
 30
0.0
 10
-12.96228505488317
 20
-0.9201005911855419
 30
0.0
 10
-13.0407264760089
 20
-0.920988507004258
 30
0.0
 10
-13.08047733066712
 20
-0.9214384658672159
 30
0.0
  0
SPLINE
  5
C2
330
1F
100
AcDbEntity
  8
0
  6
Continuous
 62
     7
370
    25
100
AcDbSpline
210
0.0
220
0.0
230
1.0
 70
     8
 71
     3
 72
    15
 73
    11
 74
     0
 42
0.000000001
 43
0.00000001
 40
0.0
 40
0.0
 40
0.0
 40
0.0
 40
0.1285151895116617
 40
0.2529486363526577
 40
0.3747547340060044
 40
0.4959397538670499
 40
0.617180641429892
 40
0.7409094692781376
 40
0.8678111481862024
 40
1.0
 40
1.0
 40
1.0
 40
1.0
 10
-13.08258069605173
 20
-0.5624641068928569
 30
0.0
 10
-13.02147800705815
 20
-0.5607753271419504
 30
0.0
 10
-12.90121329813823
 20
-0.5574514046024048
 30
0.0
 10
-12.72484527179692
 20
-0.5292921554795379
 30
0.0
 10
-12.55600950616814
 20
-0.4836342376445161
 30
0.0
 10
-12.39469691962673
 20
-0.4197363153253351
 30
0.0
 10
-12.24136227342189
 20
-0.3366710274225996
 30
0.0
 10
-12.09576561311288
 20
-0.2359731500151912
 30
0.0
 10
-11.95778404260892
 20
-0.1166848172545723
 30
0.0
 10
-11.87481276037254
 20
-0.0256016889973854
 30
0.0
 10
-11.83248053579532
 20
0.0208692264404765
 30
0.0
  0
SPLINE
  5
C3
330
1F
100
AcDbEntity
  8
0
  6
Continuous
 62
     7
370
    25
100
AcDbSpline
210
0.0
220
0.0
230
1.0
 70
     8
 71
     3
 72
    23
 73
    19
 74
     0
 42
0.000000001
 43
0.00000001
 40
0.0
 40
0.0
 40
0.0
 40
0.0
 40
0.0643232165798421
 40
0.1262901037035559
 40
0.1867264692161329
 40
0.2461464323353445
 40
0.3055756426461386
 40
0.3654293856180522
 40
0.4263263089482599
 40
0.4888399064006412
 40
0.5517249718140474
 40
0.6139185964661595
 40
0.6754837657683964
 40
0.7373338970992861
 40
0.8002290443945267
 40
0.864502298123323
 40
0.9310407391556971
 40
1.0
 40
1.0
 40
1.0
 40
1.0
 10
-14.65379463835942
 20
0.9147995149020149
 30
0.0
 10
-14.65253281933552
 20
0.8630681949792985
 30
0.0
 10
-14.65005540505407
 20
0.7615006101298636
 30
0.0
 10
-14.62800707097361
 20
0.6127299995886216
 30
0.0
 10
-14.59450197968497
 20
0.4702093258083487
 30
0.0
 10
-14.54428640274926
 20
0.3348294834974269
 30
0.0
 10
-14.48236735218879
 20
0.2049211254394245
 30
0.0
 10
-14.40412674068346
 20
0.0826822720329996
 30
0.0
 10
-14.31351020331926
 20
-0.0337342924785446
 30
0.0
 10
-14.20923578385815
 20
-0.1415772402269847
 30
0.0
 10
-14.09482996786891
 20
-0.2400909655250813
 30
0.0
 10
-13.97208205627499
 20
-0.3268415470363975
 30
0.0
 10
-13.84129776849089
 20
-0.3991564295027784
 30
0.0
 10
-13.70392113830429
 20
-0.4593323760190927
 30
0.0
 10
-13.55889502438568
 20
-0.5055891036746449
 30
0.0
 10
-13.40648022197181
 20
-0.538153227177903
 30
0.0
 10
-13.24700822672173
 20
-0.559395407719521
 30
0.0
 10
-13.13803882683171
 20
-0.5614290957886592
 30
0.0
 10
-13.08258069605173
 20
-0.5624641068928569
 30
0.0
  0
SPLINE
  5
C4
330
1F
100
AcDbEntity
  8
0
  6
Continuous
 62
     7
370
    25
100
AcDbSpline
210
0.0
220
0.0
230
1.0
 70
     8
 71
     3
 72
    31
 73
    27
 74
     0
 42
0.000000001
 43
0.00000001
 40
0.0
 40
0.0
 40
0.0
 40
0.0
 40
0.0439549089061949
 40
0.0875018747976052
 40
0.1304626267314905
 40
0.1727520205665181
 40
0.2154030673796033
 40
0.2576498297432398
 40
0.3001527489572942
 40
0.343121489502087
 40
0.3859251632064337
 40
0.4276857274028021
 40
0.46881795048659
 40
0.5094918001549961
 40
0.5498830310733493
 40
0.5899800229668863
 40
0.63040523000684
 40
0.6708686260826385
 40
0.711383943838176
 40
0.7516272580635845
 40
0.7917755768651916
 40
0.8324589188037423
 40
0.8733190450172882
 40
0.9145429556263494
 40
0.9569235582098847
 40
1.0
 40
1.0
 40
1.0
 40
1.0
 10
-13.10431547169276
 20
2.399074354645605
 30
0.0
 10
-13.13939877103317
 20
2.398670392135765
 30
0.0
 10
-13.20923976360405
 20
2.39786621626921
 30
0.0
 10
-13.31288823710455
 20
2.387257091064282
 30
0.0
 10
-13.41460128823591
 20
2.372345881019716
 30
0.0
 10
-13.51431275445455
 20
2.350220557796269
 30
0.0
 10
-13.6118957129938
 20
2.322247938718764
 30
0.0
 10
-13.70798811505944
 20
2.288822524795071
 30
0.0
 10
-13.80119871485653
 20
2.247467684935126
 30
0.0
 10
-13.89281695307077
 20
2.201759424978223
 30
0.0
 10
-13.98059616406608
 20
2.150131980234911
 30
0.0
 10
-14.06365121184341
 20
2.093818628353386
 30
0.0
 10
-14.14167917976459
 20
2.033449531913608
 30
0.0
 10
-14.21474179189778
 20
1.968798425535807
 30
0.0
 10
-14.28291374023325
 20
1.900156465060272
 30
0.0
 10
-14.34570105103846
 20
1.82679212347119
 30
0.0
 10
-14.40288646130383
 20
1.748939949953935
 30
0.0
 10
-14.45560348636724
 20
1.667626542395588
 30
0.0
 10
-14.50281621972199
 20
1.583088750760699
 30
0.0
 10
-14.54234609911288
 20
1.495013680322199
 30
0.0
 10
-14.5773512213185
 20
1.404909577291129
 30
0.0
 10
-14.60505046396454
 20
1.311758416462426
 30
0.0
 10
-14.62697498079589
 20
1.216215650619185
 30
0.0
 10
-14.64210264406936
 20
1.118024862669207
 30
0.0
 10
-14.65259111526368
 20
1.017391183071961
 30
0.0
 10
-14.6533912921644
 20
0.9491818704575377
 30
0.0
 10
-14.65379463835943
 20
0.914799514902015
 30
0.0
  0
SPLINE
  5
C5
330
1F
100
AcDbEntity
  8
0
  6
Continuous
 62
     7
370
    25
100
AcDbSpline
210
0.0
220
0.0
230
1.0
 70
     8
 71
     3
 72
    19
 73
    15
 74
     0
 42
0.000000001
 43
0.00000001
 40
0.0
 40
0.0
 40
0.0
 40
0.0
 40
0.0631632593634701
 40
0.1254749410306406
 40
0.1871212198160327
 40
0.2482943461142987
 40
0.3092948562551213
 40
0.3698500660670939
 40
0.4309733755473823
 40
0.4924559896728176
 40
0.6161479662918559
 40
0.7408436984673633
 40
0.8681826486700441
 40
0.9999999999999999
 40
0.9999999999999999
 40
0.9999999999999999
 40
0.9999999999999999
 10
-11.83248053579532
 20
1.815741021312272
 30
0.0
 10
-11.85208642415153
 20
1.839106991143403
 30
0.0
 10
-11.89103387097645
 20
1.885523906866731
 30
0.0
 10
-11.95369307350036
 20
1.950703451341611
 30
0.0
 10
-12.01899471639651
 20
2.01176871276433
 30
0.0
 10
-12.0869138376125
 20
2.069010592393242
 30
0.0
 10
-12.15867295709945
 20
2.120427358127993
 30
0.0
 10
-12.23253375576537
 20
2.168698461070921
 30
0.0
 10
-12.30973180097195
 20
2.211966199013445
 30
0.0
 10
-12.41648353561738
 20
2.264429185129391
 30
0.0
 10
-12.55613138389775
 20
2.319175340141606
 30
0.0
 10
-12.73192622297087
 20
2.365078571441808
 30
0.0
 10
-12.91543732145558
 20
2.394299747126115
 30
0.0
 10
-13.04063492108257
 20
2.39746458858528
 30
0.0
 10
-13.10431547169276
 20
2.399074354645605
 30
0.0
  0
SPLINE
  5
C7
330
1F
100
AcDbEntity
  8
0
  6
Continuous
 62
     7
370
    25
100
AcDbSpline
210
0.0
220
0.0
230
1.0
 70
     8
 71
     3
 72
    23
 73
    19
 74
     0
 42
0.000000001
 43
0.00000001
 40
0.0
 40
0.0
 40
0.0
 40
0.0
 40
0.0685475367089032
 40
0.1356829456230481
 40
0.2012149895263284
 40
0.265682234754696
 40
0.3292668348172589
 40
0.3923954278443282
 40
0.4550697616521435
 40
0.5171268500645064
 40
0.5787900352866524
 40
0.6397398633435415
 40
0.7001915036663081
 40
0.7598062425966705
 40
0.819628319275008
 40
0.8793547910462762
 40
0.9395116077646614
 40
1.0
 40
1.0
 40
1.0
 40
1.0
 10
-13.08468406143635
 20
2.758048713619964
 30
0.0
 10
-13.04446958948994
 20
2.757566575429097
 30
0.0
 10
-12.96486909219511
 20
2.756612231435497
 30
0.0
 10
-12.84711643978275
 20
2.747306089320864
 30
0.0
 10
-12.73247411283953
 20
2.731792483093742
 30
0.0
 10
-12.62086313080518
 20
2.710676413280634
 30
0.0
 10
-12.51174051460227
 20
2.684469091811055
 30
0.0
 10
-12.4059402737237
 20
2.650328793494468
 30
0.0
 10
-12.3028415868591
 20
2.611292262178865
 30
0.0
 10
-12.20309467868267
 20
2.566333796240973
 30
0.0
 10
-12.10717812854235
 20
2.515867054834124
 30
0.0
 10
-12.01512181003108
 20
2.460451431287821
 30
0.0
 10
-11.92765695132343
 20
2.400155625783387
 30
0.0
 10
-11.84416810288687
 20
2.335492450373746
 30
0.0
 10
-11.76605189181081
 20
2.265093891078337
 30
0.0
 10
-11.69109041327561
 20
2.190896295104668
 30
0.0
 10
-11.62182933511401
 20
2.110762470947332
 30
0.0
 10
-11.57907614011989
 20
2.054357537038394
 30
0.0
 10
-11.55764079220558
 20
2.02607755977381
 30
0.0
  0
SPLINE
  5
C8
330
1F
100
AcDbEntity
  8
0
  6
Continuous
 62
     7
370
    25
100
AcDbSpline
210
0.0
220
0.0
230
1.0
 70
     8
 71
     3
 72
    23
 73
    19
 74
     0
 42
0.000000001
 43
0.00000001
 40
0.0
 40
0.0
 40
0.0
 40
0.0
 40
0.0645578459297189
 40
0.1270135315497587
 40
0.1879548102020906
 40
0.248013912789634
 40
0.3077476818488373
 40
0.3682345146974851
 40
0.4294698439426693
 40
0.4927434367465852
 40
0.5562577687060832
 40
0.6182167855431434
 40
0.6796554755875547
 40
0.741245545620629
 40
0.8034152647056962
 40
0.8668154615439921
 40
0.9323283119492651
 40
0.9999999999999999
 40
0.9999999999999999
 40
0.9999999999999999
 40
0.9999999999999999
 10
-14.96789720246199
 20
0.9386376559276559
 30
0.0
 10
-14.96634200890492
 20
1.001593109468936
 30
0.0
 10
-14.9632822626714
 20
1.125454034031067
 30
0.0
 10
-14.93728646719966
 20
1.307227987320183
 30
0.0
 10
-14.89546767100818
 20
1.481379386173439
 30
0.0
 10
-14.83607078241318
 20
1.647583130761319
 30
0.0
 10
-14.7607654311078
 20
1.806713410993381
 30
0.0
 10
-14.66773881726828
 20
1.957554615840135
 30
0.0
 10
-14.55807167504686
 20
2.101071415496665
 30
0.0
 10
-14.43262410736325
 20
2.235086166794201
 30
0.0
 10
-14.29505677206349
 20
2.357625519416464
 30
0.0
 10
-14.14773795817448
 20
2.465431723164791
 30
0.0
 10
-13.99095601120185
 20
2.555149239163877
 30
0.0
 10
-13.82643815952627
 20
2.630145401589994
 30
0.0
 10
-13.65295247795964
 20
2.687789864725838
 30
0.0
 10
-13.47086910883421
 20
2.728143051413785
 30
0.0
 10
-13.28053019405295
 20
2.753260167703677
 30
0.0
 10
-13.15066776840363
 20
2.756435375606504
 30
0.0
 10
-13.08468406143635
 20
2.758048713619965
 30
0.0
  0
SPLINE
  5
CB
330
1F
100
AcDbEntity
  8
0
  6
Continuous
 62
     7
370
    25
100
AcDbSpline
210
0.0
220
0.0
230
1.0
 70
     8
 71
     3
 72
    15
 73
    11
 74
     0
 42
0.000000001
 43
0.00000001
 40
0.0
 40
0.0
 40
0.0
 40
0.0
 40
0.0751731173762211
 40
0.164746257511801
 40
0.2680168809877798
 40
0.3859118756529554
 40
0.5177894792733981
 40
0.6636909770022813
 40
0.8244132205366415
 40
1.0
 40
1.0
 40
1.0
 40
1.0
 10
-6.422624766564551
 20
0.8411817264404764
 30
0.0
 10
-6.444552100555965
 20
0.8365187453625847
 30
0.0
 10
-6.492607127916577
 20
0.8262995512112192
 30
0.0
 10
-6.57174985009432
 20
0.8148910943663352
 30
0.0
 10
-6.663895236024142
 20
0.8051534936808876
 30
0.0
 10
-6.768917515939711
 20
0.7978523560998305
 30
0.0
 10
-6.886722420861283
 20
0.7916019876378216
 30
0.0
 10
-7.017373678191027
 20
0.7866338937471441
 30
0.0
 10
-7.161127755370335
 20
0.7839040399119853
 30
0.0
 10
-7.261398999448293
 20
0.7837632471134944
 30
0.0
 10
-7.313750567846602
 20
0.7836897392609894
 30
0.0
  0
SPLINE
  5
CC
330
1F
100
AcDbEntity
  8
0
  6
Continuous
 62
     7
370
    25
100
AcDbSpline
210
0.0
220
0.0
230
1.0
 70
     8
 71
     3
 72
    23
 73
    19
 74
     0
 42
0.000000001
 43
0.00000001
 40
0.0
 40
0.0
 40
0.0
 40
0.0
 40
0.0701188944197149
 40
0.1371923527859712
 40
0.2020161807247511
 40
0.2646314069747434
 40
0.3261165471458178
 40
0.3860103046676407
 40
0.4458118469576801
 40
0.5052976967309599
 40
0.5646332777264886
 40
0.6242826253338405
 40
0.6839020319037509
 40
0.7439527709382697
 40
0.8053877310076346
 40
0.8683880308962793
 40
0.9330840282524765
 40
1.0
 40
1.0
 40
1.0
 40
1.0
 10
-5.724307458872244
 20
1.729503040543041
 30
0.0
 10
-5.724728883601204
 20
1.700725263755557
 30
0.0
 10
-5.725553429546584
 20
1.644419599810086
 30
0.0
 10
-5.73544971487542
 20
1.562046811621394
 30
0.0
 10
-5.748779906494136
 20
1.483328421489798
 30
0.0
 10
-5.769276958821334
 20
1.408438971020377
 30
0.0
 10
-5.796122631919738
 20
1.337823200549611
 30
0.0
 10
-5.827614684765429
 20
1.270401968528871
 30
0.0
 10
-5.865598215135203
 20
1.207322296630275
 30
0.0
 10
-5.909243044845704
 20
1.14835517908862
 30
0.0
 10
-5.9577946392386
 20
1.093445266774452
 30
0.0
 10
-6.011047577385857
 20
1.042990472281746
 30
0.0
 10
-6.068786869886125
 20
0.9972861338592197
 30
0.0
 10
-6.130829017962488
 20
0.9562297901788311
 30
0.0
 10
-6.197778866799029
 20
0.9207735106811457
 30
0.0
 10
-6.268621020369975
 20
0.8890162057556109
 30
0.0
 10
-6.343971236791895
 20
0.8623451451171174
 30
0.0
 10
-6.396113750767265
 20
0.8483150836907198
 30
0.0
 10
-6.422624766564551
 20
0.8411817264404764
 30
0.0
  0
SPLINE
  5
CD
330
1F
100
AcDbEntity
  8
0
  6
Continuous
 62
     7
370
    25
100
AcDbSpline
210
0.0
220
0.0
230
1.0
 70
     8
 71
     3
 72
    23
 73
    19
 74
     0
 42
0.000000001
 43
0.00000001
 40
0.0
 40
0.0
 40
0.0
 40
0.0
 40
0.0624813386352045
 40
0.1234903826872902
 40
0.1834110942063115
 40
0.2431532209997792
 40
0.3021267353720874
 40
0.3617096708329062
 40
0.4218422916948801
 40
0.4829319014466687
 40
0.5445522544313237
 40
0.6056807199653584
 40
0.667679738343688
 40
0.7299843875380636
 40
0.7945509212861294
 40
0.8603456197120827
 40
0.9289073562657088
 40
1.0
 40
1.0
 40
1.0
 40
1.0
 10
-6.394579894769679
 20
2.615720989260989
 30
0.0
 10
-6.370386360984388
 20
2.60909903942929
 30
0.0
 10
-6.322569383772246
 20
2.596011177729863
 30
0.0
 10
-6.253668340670622
 20
2.569797454254218
 30
0.0
 10
-6.188114495190245
 20
2.538715289078727
 30
0.0
 10
-6.125682936745068
 20
2.503291349227828
 30
0.0
 10
-6.067140853674191
 20
2.462005785040688
 30
0.0
 10
-6.011614812708185
 20
2.416532167301398
 30
0.0
 10
-5.959594832412487
 20
2.365820598728966
 30
0.0
 10
-5.911373440528311
 20
2.310439858881532
 30
0.0
 10
-5.867088642944365
 20
2.251319649000038
 30
0.0
 10
-5.828958960217183
 20
2.187577419092551
 30
0.0
 10
-5.797031733183924
 20
2.120286115672711
 30
0.0
 10
-5.769648461699766
 20
2.049492544515373
 30
0.0
 10
-5.749940007230572
 20
1.974602221024035
 30
0.0
 10
-5.735093107525115
 20
1.896135508649848
 30
0.0
 10
-5.72566947990947
 20
1.814100818448352
 30
0.0
 10
-5.724766918154326
 20
1.758040950927489
 30
0.0
 10
-5.724307458872244
 20
1.729503040543041
 30
0.0
  0
SPLINE
  5
CE
330
1F
100
AcDbEntity
  8
0
  6
Continuous
 62
     7
370
    25
100
AcDbSpline
210
0.0
220
0.0
230
1.0
 70
     8
 71
     3
 72
    15
 73
    11
 74
     0
 42
0.000000001
 43
0.00000001
 40
0.0
 40
0.0
 40
0.0
 40
0.0
 40
0.1769557521312497
 40
0.3390550796425813
 40
0.4863182249420763
 40
0.6187809228353786
 40
0.7356188277673815
 40
0.8387424767201108
 40
0.9264570678763172
 40
1.0
 40
1.0
 40
1.0
 40
1.0
 10
-7.19175537553891
 20
2.668305123876374
 30
0.0
 10
-7.144544469387248
 20
2.66825322763553
 30
0.0
 10
-7.054086276576554
 20
2.668153792133373
 30
0.0
 10
-6.924371220867667
 20
2.665139046307728
 30
0.0
 10
-6.80656148924133
 20
2.661112354214964
 30
0.0
 10
-6.700911108314611
 20
2.655530461021843
 30
0.0
 10
-6.607095010228025
 20
2.648933870774334
 30
0.0
 10
-6.525537710681466
 20
2.639681831396906
 30
0.0
 10
-6.455598154347626
 20
2.630021535843581
 30
0.0
 10
-6.413691704901109
 20
2.620200129324187
 30
0.0
 10
-6.394579894769679
 20
2.615720989260989
 30
0.0
  0
CIRCLE
  5
E6
330
1F
100
AcDbEntity
  8
0
  6
Continuous
 62
     7
370
    25
100
AcDbCircle
 10
60.0
 20
0.0
 30
0.0
 40
4.024999999999999
  0
CIRCLE
  5
E7
330
1F
100
AcDbEntity
  8
0
  6
Continuous
 62
     7
370
    25
100
AcDbCircle
 10
-21.06
 20
25.0
 30
0.0
 40
2.999999999999986
  0
CIRCLE
  5
E8
330
1F
100
AcDbEntity
  8
0
  6
Continuous
 62
     7
370
    25
100
AcDbCircle
 10
-21.06
 20
-25.0
 30
0.0
 40
2.999999999999993
  0
CIRCLE
  5
E9
330
1F
100
AcDbEntity
  8
0
  6
Continuous
 62
     7
370
    25
100
AcDbCircle
 10
40.0
 20
0.0
 30
0.0
 40
7.499999999999986
  0
CIRCLE
  5
EA
330
1F
100
AcDbEntity
  8
0
  6
Continuous
 62
     7
370
    25
100
AcDbCircle
 10
-40.0
 20
0.0
 30
0.0
 40
7.500000000000007
  0
SPLINE
  5
EB
330
1F
100
AcDbEntity
  8
0
  6
Continuous
 62
     7
370
    25
100
AcDbSpline
210
0.0
220
0.0
230
1.0
 70
     8
 71
     3
 72
    15
 73
    11
 74
     0
 42
0.000000001
 43
0.00000001
 40
0.0
 40
0.0
 40
0.0
 40
0.0
 40
0.1105883385953353
 40
0.2245417540535956
 40
0.3425034940501039
 40
0.4643240984173577
 40
0.5907560327017664
 40
0.7222274753555143
 40
0.8588428362087241
 40
1.0
 40
1.0
 40
1.0
 40
1.0
 10
6.303436932153399
 20
0.0383972713122714
 30
0.0
 10
6.313988699947163
 20
0.0696270107786014
 30
0.0
 10
6.33541331377962
 20
0.133036775022065
 30
0.0
 10
6.363025088050365
 20
0.2314004271025539
 30
0.0
 10
6.384770487254061
 20
0.3346031910404895
 30
0.0
 10
6.404333853003486
 20
0.4420283077589323
 30
0.0
 10
6.417686908900845
 20
0.5544680087699144
 30
0.0
 10
6.428434722184085
 20
0.6715743926856622
 30
0.0
 10
6.434765409123343
 20
0.7934357549211092
 30
0.0
 10
6.435550160194674
 20
0.876230746116359
 30
0.0
 10
6.435948951384166
 20
0.9183051238763739
 30
0.0
  0
SPLINE
  5
EC
330
1F
100
AcDbEntity
  8
0
  6
Continuous
 62
     7
370
    25
100
AcDbSpline
210
0.0
220
0.0
230
1.0
 70
     8
 71
     3
 72
    19
 73
    15
 74
     0
 42
0.000000001
 43
0.00000001
 40
0.0
 40
0.0
 40
0.0
 40
0.0
 40
0.1128134007444582
 40
0.2253938839207301
 40
0.3395948145627006
 40
0.4596754102248634
 40
0.5217351900879318
 40
0.5839258387389149
 40
0.6481741447653689
 40
0.7138810381130669
 40
0.7810044549073893
 40
0.8514509275565553
 40
0.9240506926641772
 40
1.0
 40
1.0
 40
1.0
 40
1.0
 10
5.552535489845707
 20
-0.5624641068928569
 30
0.0
 10
5.591293161501452
 20
-0.5608663260813072
 30
0.0
 10
5.668728484686159
 20
-0.5576740632792578
 30
0.0
 10
5.781862279830499
 20
-0.5268753259050345
 30
0.0
 10
5.89169254991276
 20
-0.4804057864413549
 30
0.0
 10
5.977764490191646
 20
-0.4254582810220948
 30
0.0
 10
6.043247033693081
 20
-0.373129951570821
 30
0.0
 10
6.090164023798992
 20
-0.328515303257909
 30
0.0
 10
6.133226072232247
 20
-0.2785594359514907
 30
0.0
 10
6.174068147086857
 20
-0.2246601400365788
 30
0.0
 10
6.211527222761744
 20
-0.165787655862794
 30
0.0
 10
6.245590360456955
 20
-0.1022250805967827
 30
0.0
 10
6.276673708002108
 20
-0.0337959026845889
 30
0.0
 10
6.29438275395237
 20
0.0139738364312397
 30
0.0
 10
6.303436932153399
 20
0.0383972713122714
 30
0.0
  0
SPLINE
  5
ED
330
1F
100
AcDbEntity
  8
0
  6
Continuous
 62
     7
370
    25
100
AcDbSpline
210
0.0
220
0.0
230
1.0
 70
     8
 71
     3
 72
    27
 73
    23
 74
     0
 42
0.000000001
 43
0.00000001
 40
0.0
 40
0.0
 40
0.0
 40
0.0
 40
0.0729510658758665
 40
0.141583694186545
 40
0.2059264601708669
 40
0.2653013571846052
 40
0.320597232713928
 40
0.3718165030988102
 40
0.418789769709452
 40
0.4616987286157644
 40
0.5021335821035651
 40
0.5408043152926477
 40
0.5781805253279659
 40
0.6142968652075139
 40
0.6496782432647873
 40
0.6842994600896377
 40
0.7183589527723607
 40
0.7520808646475959
 40
0.8176524386023859
 40
0.8797220764054368
 40
0.9399655597309875
 40
1.0
 40
1.0
 40
1.0
 40
1.0
 10
4.685948951384169
 20
0.9183051238763739
 30
0.0
 10
4.686068398451684
 20
0.8715564250725202
 30
0.0
 10
4.686300221755094
 20
0.7808263802733622
 30
0.0
 10
4.692356422332311
 20
0.6489831192974209
 30
0.0
 10
4.700606654331788
 20
0.5260127904802638
 30
0.0
 10
4.711247951516935
 20
0.4117592540151316
 30
0.0
 10
4.727050900042955
 20
0.3066092415053227
 30
0.0
 10
4.744757687860638
 20
0.2098395584401892
 30
0.0
 10
4.766305777479858
 20
0.1219623213263846
 30
0.0
 10
4.791800795346862
 20
0.0423745106218548
 30
0.0
 10
4.820839892240321
 20
-0.0302745578734959
 30
0.0
 10
4.852545755910384
 20
-0.0978757730008332
 30
0.0
 10
4.886606478815297
 20
-0.161227709436614
 30
0.0
 10
4.924725629368279
 20
-0.2197613178107391
 30
0.0
 10
4.966240692597279
 20
-0.2736674818836004
 30
0.0
 10
5.01021395173478
 20
-0.323900314205892
 30
0.0
 10
5.058286535976894
 20
-0.3686972955414885
 30
0.0
 10
5.124790278520104
 20
-0.4224241505709613
 30
0.0
 10
5.212586752947153
 20
-0.4779432843005572
 30
0.0
 10
5.323207208178259
 20
-0.5262893741321919
 30
0.0
 10
5.436875659159759
 20
-0.5566718305645029
 30
0.0
 10
5.51402690924669
 20
-0.5605355865196268
 30
0.0
 10
5.552535489845707
 20
-0.5624641068928569
 30
0.0
  0
SPLINE
  5
EE
330
1F
100
AcDbEntity
  8
0
  6
Continuous
 62
     7
370
    25
100
AcDbSpline
210
0.0
220
0.0
230
1.0
 70
     8
 71
     3
 72
    27
 73
    23
 74
     0
 42
0.000000001
 43
0.00000001
 40
0.0
 40
0.0
 40
0.0
 40
0.0
 40
0.0603866193110622
 40
0.1208832485859964
 40
0.1827546186251393
 40
0.247811029758352
 40
0.2812991000432493
 40
0.3150876241506571
 40
0.3497023955502755
 40
0.3848565811185554
 40
0.4209661972261028
 40
0.4585111882611395
 40
0.4971747221273121
 40
0.5376020478662696
 40
0.5805030184200116
 40
0.6274675400267047
 40
0.6783882095592434
 40
0.7339832205925605
 40
0.793746704550835
 40
0.8577136721607321
 40
0.9266978643613859
 40
0.9999999999999999
 40
0.9999999999999999
 40
0.9999999999999999
 40
0.9999999999999999
 10
5.552535489845707
 20
2.399074354645605
 30
0.0
 10
5.513824897758899
 20
2.397042907998351
 30
0.0
 10
5.436333192153789
 20
2.392976313894378
 30
0.0
 10
5.321885237427032
 20
2.364283060302792
 30
0.0
 10
5.212180885784734
 20
2.314270094365175
 30
0.0
 10
5.124937911105881
 20
2.259317721900258
 30
0.0
 10
5.058074124598283
 20
2.206979410458603
 30
0.0
 10
5.010991431221533
 20
2.161592956400141
 30
0.0
 10
4.966845259003834
 20
2.111946702035008
 30
0.0
 10
4.92617755886619
 20
2.05754478718465
 30
0.0
 10
4.888088275673923
 20
1.999079419865526
 30
0.0
 10
4.85310726309822
 20
1.936090655140265
 30
0.0
 10
4.821589933422174
 20
1.868259290914864
 30
0.0
 10
4.792505397242003
 20
1.795642855495803
 30
0.0
 10
4.766932609215783
 20
1.716061911060259
 30
0.0
 10
4.745838645985794
 20
1.628292917466795
 30
0.0
 10
4.726351592865899
 20
1.531831025677611
 30
0.0
 10
4.712556323965338
 20
1.42611151773242
 30
0.0
 10
4.700292568203629
 20
1.311829364363192
 30
0.0
 10
4.692411220251371
 20
1.188552046133854
 30
0.0
 10
4.686279962782143
 20
1.056487665731496
 30
0.0
 10
4.686061498419388
 20
0.9652885072288497
 30
0.0
 10
4.685948951384169
 20
0.9183051238763739
 30
0.0
  0
SPLINE
  5
EF
330
1F
100
AcDbEntity
  8
0
  6
Continuous
 62
     7
370
    25
100
AcDbSpline
210
0.0
220
0.0
230
1.0
 70
     8
 71
     3
 72
    27
 73
    23
 74
     0
 42
0.000000001
 43
0.00000001
 40
0.0
 40
0.0
 40
0.0
 40
0.0
 40
0.0656811979906388
 40
0.128486464174065
 40
0.1881751303280079
 40
0.2451061306699863
 40
0.2994484245294757
 40
0.3508229360093824
 40
0.3999416805337782
 40
0.4466717436323723
 40
0.4912545333734986
 40
0.533376344270437
 40
0.5738527549682242
 40
0.6125263117194527
 40
0.6495971364453296
 40
0.6855320415538507
 40
0.7201057860682011
 40
0.7538376629736497
 40
0.8189254160467134
 40
0.8804934616501646
 40
0.9403113338460569
 40
1.0
 40
1.0
 40
1.0
 40
1.0
 10
6.435948951384166
 20
0.9183051238763739
 30
0.0
 10
6.435398762151231
 20
0.9603726963944164
 30
0.0
 10
6.434322474395691
 20
1.042665861174993
 30
0.0
 10
6.430208486694564
 20
1.163184041837121
 30
0.0
 10
6.419584912202561
 20
1.277651802746272
 30
0.0
 10
6.407785793338061
 20
1.386562275410587
 30
0.0
 10
6.390388572245964
 20
1.489312578115078
 30
0.0
 10
6.371630765365672
 20
1.586762883371394
 30
0.0
 10
6.346429553075442
 20
1.677705908190742
 30
0.0
 10
6.319509778101458
 20
1.763565489902349
 30
0.0
 10
6.288699382570024
 20
1.843366144403144
 30
0.0
 10
6.254783648312455
 20
1.9174799307651
 30
0.0
 10
6.218561889543435
 20
1.986264655521907
 30
0.0
 10
6.179219649084172
 20
2.04953159709842
 30
0.0
 10
6.137223966018898
 20
2.107564140009554
 30
0.0
 10
6.09146641682133
 20
2.15919873456663
 30
0.0
 10
6.043762044010487
 20
2.206035702675174
 30
0.0
 10
5.976944858186833
 20
2.259498271796779
 30
0.0
 10
5.889470568386439
 20
2.314009967279936
 30
0.0
 10
5.780624921044001
 20
2.364175727140275
 30
0.0
 10
5.667354276792867
 20
2.392984019761182
 30
0.0
 10
5.590780822700834
 20
2.397045706799316
 30
0.0
 10
5.552535489845708
 20
2.399074354645605
 30
0.0
  0
SPLINE
  5
F0
330
1F
100
AcDbEntity
  8
0
  6
Continuous
 62
     7
370
    25
100
AcDbSpline
210
0.0
220
0.0
230
1.0
 70
     8
 71
     3
 72
    23
 73
    19
 74
     0
 42
0.000000001
 43
0.00000001
 40
0.0
 40
0.0
 40
0.0
 40
0.0
 40
0.0725383714064942
 40
0.1400338305012514
 40
0.2024956806336242
 40
0.260575055669416
 40
0.3132283378464658
 40
0.3615831937532658
 40
0.4048783612951279
 40
0.4441274373055405
 40
0.5163996933371992
 40
0.5865066709977663
 40
0.6550853737960486
 40
0.7243837831470363
 40
0.7939735287256631
 40
0.8616376821817772
 40
0.9301109423064039
 40
0.9999999999999999
 40
0.9999999999999999
 40
0.9999999999999999
 40
0.9999999999999999
 10
-6.951270599897885
 20
1.134951758491759
 30
0.0
 10
-6.921350674085027
 20
1.134936294900617
 30
0.0
 10
-6.86359087415226
 20
1.134906442756725
 30
0.0
 10
-6.780154650919023
 20
1.138891666235952
 30
0.0
 10
-6.70274536361597
 20
1.143492198900344
 30
0.0
 10
-6.631600788242647
 20
1.150228122362346
 30
0.0
 10
-6.566688853759335
 20
1.159749379846531
 30
0.0
 10
-6.507901324884882
 20
1.169361117764681
 30
0.0
 10
-6.455694041989981
 20
1.18326648036321
 30
0.0
 10
-6.394594840224129
 20
1.201989549502333
 30
0.0
 10
-6.326511492747342
 20
1.233922165163318
 30
0.0
 10
-6.252443944224153
 20
1.280272055216891
 30
0.0
 10
-6.189673357872882
 20
1.339352763416992
 30
0.0
 10
-6.135355061111317
 20
1.405780594743493
 30
0.0
 10
-6.092249183172915
 20
1.47967972416955
 30
0.0
 10
-6.060693190856442
 20
1.558748660895576
 30
0.0
 10
-6.042152033492891
 20
1.64217651041728
 30
0.0
 10
-6.039665839837221
 20
1.699264649272458
 30
0.0
 10
-6.038410022974807
 20
1.728100796953297
 30
0.0
  0
SPLINE
  5
F4
330
1F
100
AcDbEntity
  8
0
  6
Continuous
 62
     7
370
    25
100
AcDbSpline
210
0.0
220
0.0
230
1.0
 70
     8
 71
     3
 72
    23
 73
    19
 74
     0
 42
0.000000001
 43
0.00000001
 40
0.0
 40
0.0
 40
0.0
 40
0.0
 40
0.0700437554181557
 40
0.1392383167626456
 40
0.2081974550441381
 40
0.2791733744245672
 40
0.3499868116864771
 40
0.4183538456626554
 40
0.4876095837571503
 40
0.5574110731083887
 40
0.5953301567632407
 40
0.6379640515652197
 40
0.6859127777112936
 40
0.7381851646524784
 40
0.7961026471849421
 40
0.8585165439469267
 40
0.9266577264685197
 40
1.0
 40
1.0
 40
1.0
 40
1.0
 10
-6.038410022974807
 20
1.728100796953297
 30
0.0
 10
-6.039672669470342
 20
1.756239310402157
 30
0.0
 10
-6.042182654431243
 20
1.812175192557997
 30
0.0
 10
-6.060838517591919
 20
1.894153953167715
 30
0.0
 10
-6.092187831455456
 20
1.972389657554502
 30
0.0
 10
-6.135644425970308
 20
2.045362742907924
 30
0.0
 10
-6.188385555930939
 20
2.111551546873175
 30
0.0
 10
-6.249684899038921
 20
2.169048673936036
 30
0.0
 10
-6.319398160372592
 20
2.215270376667149
 30
0.0
 10
-6.38424639140533
 20
2.245103658315829
 30
0.0
 10
-6.441847577432778
 20
2.263318933748975
 30
0.0
 10
-6.491879537316567
 20
2.276063774206206
 30
0.0
 10
-6.548370211802912
 20
2.286239380451139
 30
0.0
 10
-6.611337991313272
 20
2.294478883247328
 30
0.0
 10
-6.680294825193681
 20
2.301532344470692
 30
0.0
 10
-6.755833140088297
 20
2.306318321704683
 30
0.0
 10
-6.837666783352724
 20
2.309119777941218
 30
0.0
 10
-6.894477354217673
 20
2.309258733197898
 30
0.0
 10
-6.923926849897885
 20
2.309330764902015
 30
0.0
  0
SPLINE
  5
F5
330
1F
100
AcDbEntity
  8
0
  6
Continuous
 62
     7
370
    25
100
AcDbSpline
210
0.0
220
0.0
230
1.0
 70
     8
 71
     3
 72
    23
 73
    19
 74
     0
 42
0.000000001
 43
0.00000001
 40
0.0
 40
0.0
 40
0.0
 40
0.0
 40
0.0716681496796058
 40
0.1389132862742059
 40
0.2011845700265596
 40
0.2591244282905463
 40
0.3122550414262358
 40
0.3606815096231102
 40
0.4050861433286442
 40
0.4451016585907105
 40
0.5187777804882611
 40
0.5894615790331972
 40
0.6584622419857178
 40
0.7272832183683672
 40
0.7963224869047189
 40
0.8631748932078811
 40
0.9309493809878561
 40
1.0
 40
1.0
 40
1.0
 40
1.0
 10
-9.884764189641475
 20
1.137756245671246
 30
0.0
 10
-9.854844150719625
 20
1.137743009017087
 30
0.0
 10
-9.796850593600217
 20
1.137717352611323
 30
0.0
 10
-9.712949928788825
 20
1.141711128854882
 30
0.0
 10
-9.634829817097232
 20
1.146254447097858
 30
0.0
 10
-9.562789064934819
 20
1.1532037926346
 30
0.0
 10
-9.496795489608846
 20
1.162159864360358
 30
0.0
 10
-9.43688207638725
 20
1.173362848598984
 30
0.0
 10
-9.382951024490513
 20
1.186414911245872
 30
0.0
 10
-9.320052486067807
 20
1.20661653705585
 30
0.0
 10
-9.24981595471089
 20
1.23862255532111
 30
0.0
 10
-9.173484494833817
 20
1.285188054015649
 30
0.0
 10
-9.108482157083296
 20
1.343757173183135
 30
0.0
 10
-9.053564294778338
 20
1.410730629217543
 30
0.0
 10
-9.009434863303019
 20
1.484366878055215
 30
0.0
 10
-8.97832280896848
 20
1.563783247271406
 30
0.0
 10
-8.9585803666764
 20
1.646974845279011
 30
0.0
 10
-8.956251821226978
 20
1.704152953123748
 30
0.0
 10
-8.955076689641475
 20
1.7330086495174
 30
0.0
  0
SPLINE
  5
F9
330
1F
100
AcDbEntity
  8
0
  6
Continuous
 62
     7
370
    25
100
AcDbSpline
210
0.0
220
0.0
230
1.0
 70
     8
 71
     3
 72
    23
 73
    19
 74
     0
 42
0.000000001
 43
0.00000001
 40
0.0
 40
0.0
 40
0.0
 40
0.0
 40
0.0688142958243095
 40
0.1363648245522147
 40
0.2040193535112471
 40
0.2730637386246118
 40
0.3429133195614897
 40
0.410965444138958
 40
0.4791687665134466
 40
0.549308006509783
 40
0.5876515764176495
 40
0.6306466687627902
 40
0.6788787856966485
 40
0.7319342992295838
 40
0.7911114229480471
 40
0.8552831895130781
 40
0.9250859386773844
 40
1.0
 40
1.0
 40
1.0
 40
1.0
 10
-8.955076689641475
 20
1.7330086495174
 30
0.0
 10
-8.956278810729964
 20
1.761155223247087
 30
0.0
 10
-8.958660976083236
 20
1.816931461925662
 30
0.0
 10
-8.978109744609956
 20
1.898587372213278
 30
0.0
 10
-9.010999125966405
 20
1.975654322344049
 30
0.0
 10
-9.05532136389119
 20
2.047818807335751
 30
0.0
 10
-9.1093205188537
 20
2.11332454319014
 30
0.0
 10
-9.172638331548331
 20
2.16937169624766
 30
0.0
 10
-9.243543526698401
 20
2.215621160925759
 30
0.0
 10
-9.30981472505029
 20
2.245175541437621
 30
0.0
 10
-9.369048937542678
 20
2.263295394683552
 30
0.0
 10
-9.420478597583594
 20
2.276046558494595
 30
0.0
 10
-9.478590075302973
 20
2.286291027424537
 30
0.0
 10
-9.543665533914917
 20
2.294499088299752
 30
0.0
 10
-9.615427164699792
 20
2.301554032548542
 30
0.0
 10
-9.694237815791302
 20
2.306305811206668
 30
0.0
 10
-9.779574596052584
 20
2.309119675312678
 30
0.0
 10
-9.838721527244012
 20
2.309258764193235
 30
0.0
 10
-9.869339510154296
 20
2.309330764902015
 30
0.0
  0
CIRCLE
  5
114
330
1F
100
AcDbEntity
  8
0
  6
Continuous
 62
     7
370
    25
100
AcDbCircle
 10
40.0
 20
0.0
 30
0.0
 40
4.499999999999986
  0
CIRCLE
  5
115
330
1F
100
AcDbEntity
  8
0
  6
Continuous
 62
     7
370
    25
100
AcDbCircle
 10
-40.0
 20
0.0
 30
0.0
 40
4.499999999999986
  0
LINE
  5
116
330
1F
100
AcDbEntity
  8
0
  6
Continuous
 62
     7
370
    25
100
AcDbLine
 10
8.1410771565
 20
-0.8316948761
 30
0.0
 11
8.1410771565
 21
2.3093307649
 31
0.0
  0
LINE
  5
117
330
1F
100
AcDbEntity
  8
0
  6
Continuous
 62
     7
370
    25
100
AcDbLine
 10
8.4551797206
 20
-0.8316948761
 30
0.0
 11
8.1410771565
 21
-0.8316948761
 31
0.0
  0
LINE
  5
118
330
1F
100
AcDbEntity
  8
0
  6
Continuous
 62
     7
370
    25
100
AcDbLine
 10
8.4551797206
 20
2.6683051239
 30
0.0
 11
8.4551797206
 21
-0.8316948761
 31
0.0
  0
LINE
  5
119
330
1F
100
AcDbEntity
  8
0
  6
Continuous
 62
     7
370
    25
100
AcDbLine
 10
7.8080443039
 20
2.6683051239
 30
0.0
 11
8.4551797206
 21
2.6683051239
 31
0.0
  0
LINE
  5
11A
330
1F
100
AcDbEntity
  8
0
  6
Continuous
 62
     7
370
    25
100
AcDbLine
 10
7.6026156181
 20
2.3093307649
 30
0.0
 11
7.8080443039
 21
2.6683051239
 31
0.0
  0
LINE
  5
11B
330
1F
100
AcDbEntity
  8
0
  6
Continuous
 62
     7
370
    25
100
AcDbLine
 10
8.1410771565
 20
2.3093307649
 30
0.0
 11
7.6026156181
 21
2.3093307649
 31
0.0
  0
LINE
  5
11C
330
1F
100
AcDbEntity
  8
0
  6
Continuous
 62
     7
370
    25
100
AcDbLine
 10
-0.9678972025
 20
-0.8316948761
 30
0.0
 11
-0.9678972025
 21
-0.0240025684
 31
0.0
  0
LINE
  5
11D
330
1F
100
AcDbEntity
  8
0
  6
Continuous
 62
     7
370
    25
100
AcDbLine
 10
-0.6537946384
 20
-0.8316948761
 30
0.0
 11
-0.9678972025
 21
-0.8316948761
 31
0.0
  0
LINE
  5
11E
330
1F
100
AcDbEntity
  8
0
  6
Continuous
 62
     7
370
    25
100
AcDbLine
 10
-0.6537946384
 20
-0.0240025684
 30
0.0
 11
-0.6537946384
 21
-0.8316948761
 31
0.0
  0
LINE
  5
11F
330
1F
100
AcDbEntity
  8
0
  6
Continuous
 62
     7
370
    25
100
AcDbLine
 10
-0.2499484845
 20
-0.0240025684
 30
0.0
 11
-0.6537946384
 21
-0.0240025684
 31
0.0
  0
LINE
  5
120
330
1F
100
AcDbEntity
  8
0
  6
Continuous
 62
     7
370
    25
100
AcDbLine
 10
-0.2499484845
 20
0.3349717905
 30
0.0
 11
-0.2499484845
 21
-0.0240025684
 31
0.0
  0
LINE
  5
121
330
1F
100
AcDbEntity
  8
0
  6
Continuous
 62
     7
370
    25
100
AcDbLine
 10
-0.6537946384
 20
0.3349717905
 30
0.0
 11
-0.2499484845
 21
0.3349717905
 31
0.0
  0
LINE
  5
122
330
1F
100
AcDbEntity
  8
0
  6
Continuous
 62
     7
370
    25
100
AcDbLine
 10
-0.6537946384
 20
2.7580487136
 30
0.0
 11
-0.6537946384
 21
0.3349717905
 31
0.0
  0
LINE
  5
123
330
1F
100
AcDbEntity
  8
0
  6
Continuous
 62
     7
370
    25
100
AcDbLine
 10
-0.7175967217
 20
2.7580487136
 30
0.0
 11
-0.6537946384
 21
2.7580487136
 31
0.0
  0
LINE
  5
124
330
1F
100
AcDbEntity
  8
0
  6
Continuous
 62
     7
370
    25
100
AcDbLine
 10
-2.6281536127
 20
-0.0240025684
 30
0.0
 11
-0.7175967217
 21
2.7580487136
 31
0.0
  0
LINE
  5
125
330
1F
100
AcDbEntity
  8
0
  6
Continuous
 62
     7
370
    25
100
AcDbLine
 10
-0.9678972025
 20
-0.0240025684
 30
0.0
 11
-2.6281536127
 21
-0.0240025684
 31
0.0
  0
LINE
  5
126
330
1F
100
AcDbEntity
  8
0
  6
Continuous
 62
     7
370
    25
100
AcDbLine
 10
-10.5255895102
 20
0.7836897393
 30
0.0
 11
-10.5255895102
 21
-0.8316948761
 31
0.0
  0
LINE
  5
127
330
1F
100
AcDbEntity
  8
0
  6
Continuous
 62
     7
370
    25
100
AcDbLine
 10
-10.2703811768
 20
0.7836897393
 30
0.0
 11
-10.5255895102
 21
0.7836897393
 31
0.0
  0
LINE
  5
128
330
1F
100
AcDbEntity
  8
0
  6
Continuous
 62
     7
370
    25
100
AcDbLine
 10
-8.984523805
 20
-0.8316948761
 30
0.0
 11
-10.2703811768
 21
0.7836897393
 31
0.0
  0
LINE
  5
129
330
1F
100
AcDbEntity
  8
0
  6
Continuous
 62
     7
370
    25
100
AcDbLine
 10
-8.5961023307
 20
-0.8316948761
 30
0.0
 11
-8.984523805
 21
-0.8316948761
 31
0.0
  0
LINE
  5
12A
330
1F
100
AcDbEntity
  8
0
  6
Continuous
 62
     7
370
    25
100
AcDbLine
 10
-9.8819597025
 20
0.7836897393
 30
0.0
 11
-8.5961023307
 21
-0.8316948761
 31
0.0
  0
LINE
  5
12B
330
1F
100
AcDbEntity
  8
0
  6
Continuous
 62
     7
370
    25
100
AcDbLine
 10
-10.8396920743
 20
2.6683051239
 30
0.0
 11
-10.1392714012
 21
2.6683051239
 31
0.0
  0
LINE
  5
12C
330
1F
100
AcDbEntity
  8
0
  6
Continuous
 62
     7
370
    25
100
AcDbLine
 10
-10.8396920743
 20
-0.8316948761
 30
0.0
 11
-10.8396920743
 21
2.6683051239
 31
0.0
  0
LINE
  5
12D
330
1F
100
AcDbEntity
  8
0
  6
Continuous
 62
     7
370
    25
100
AcDbLine
 10
-10.5255895102
 20
-0.8316948761
 30
0.0
 11
-10.8396920743
 21
-0.8316948761
 31
0.0
  0
LINE
  5
12E
330
1F
100
AcDbEntity
  8
0
  6
Continuous
 62
     7
370
    25
100
AcDbLine
 10
-16.0
 20
-33.3579
 30
0.0
 11
-22.0
 21
-33.3579
 31
0.0
  0
LINE
  5
12F
330
1F
100
AcDbEntity
  8
0
  6
Continuous
 62
     7
370
    25
100
AcDbLine
 10
-28.6421
 20
-40.0
 30
0.0
 11
-28.6421
 21
-46.825
 31
0.0
  0
LINE
  5
130
330
1F
100
AcDbEntity
  8
0
  6
Continuous
 62
     7
370
    25
100
AcDbLine
 10
-70.0
 20
46.825
 30
0.0
 11
-70.0
 21
-46.825
 31
0.0
  0
LINE
  5
131
330
1F
100
AcDbEntity
  8
0
  6
Continuous
 62
     7
370
    25
100
AcDbLine
 10
-28.6421
 20
46.825
 30
0.0
 11
-28.6421
 21
40.0
 31
0.0
  0
LINE
  5
132
330
1F
100
AcDbEntity
  8
0
  6
Continuous
 62
     7
370
    25
100
AcDbLine
 10
-22.0
 20
33.3579
 30
0.0
 11
-16.0
 21
33.3579
 31
0.0
  0
LINE
  5
133
330
1F
100
AcDbEntity
  8
0
  6
Continuous
 62
     7
370
    25
100
AcDbLine
 10
-9.3579
 20
40.0
 30
0.0
 11
-9.3579
 21
46.825
 31
0.0
  0
LINE
  5
134
330
1F
100
AcDbEntity
  8
0
  6
Continuous
 62
     7
370
    25
100
AcDbLine
 10
9.3579
 20
46.825
 30
0.0
 11
9.3579
 21
40.0
 31
0.0
  0
LINE
  5
135
330
1F
100
AcDbEntity
  8
0
  6
Continuous
 62
     7
370
    25
100
AcDbLine
 10
16.0
 20
33.3579
 30
0.0
 11
22.0
 21
33.3579
 31
0.0
  0
LINE
  5
136
330
1F
100
AcDbEntity
  8
0
  6
Continuous
 62
     7
370
    25
100
AcDbLine
 10
28.6421
 20
40.0
 30
0.0
 11
28.6421
 21
46.825
 31
0.0
  0
LINE
  5
137
330
1F
100
AcDbEntity
  8
0
  6
Continuous
 62
     7
370
    25
100
AcDbLine
 10
66.825
 20
50.0
 30
0.0
 11
-66.825
 21
50.0
 31
0.0
  0
LINE
  5
138
330
1F
100
AcDbEntity
  8
0
  6
Continuous
 62
     7
370
    25
100
AcDbLine
 10
70.0
 20
-46.825
 30
0.0
 11
70.0
 21
46.825
 31
0.0
  0
LINE
  5
139
330
1F
100
AcDbEntity
  8
0
  6
Continuous
 62
     7
370
    25
100
AcDbLine
 10
28.6421
 20
-46.825
 30
0.0
 11
28.6421
 21
-40.0
 31
0.0
  0
LINE
  5
13A
330
1F
100
AcDbEntity
  8
0
  6
Continuous
 62
     7
370
    25
100
AcDbLine
 10
22.0
 20
-33.3579
 30
0.0
 11
16.0
 21
-33.3579
 31
0.0
  0
LINE
  5
13B
330
1F
100
AcDbEntity
  8
0
  6
Continuous
 62
     7
370
    25
100
AcDbLine
 10
9.3579
 20
-40.0
 30
0.0
 11
9.3579
 21
-46.825
 31
0.0
  0
LINE
  5
13C
330
1F
100
AcDbEntity
  8
0
  6
Continuous
 62
     7
370
    25
100
AcDbLine
 10
-66.825
 20
-50.0
 30
0.0
 11
66.825
 21
-50.0
 31
0.0
  0
LINE
  5
13D
330
1F
100
AcDbEntity
  8
0
  6
Continuous
 62
     7
370
    25
100
AcDbLine
 10
-9.3579
 20
-46.825
 30
0.0
 11
-9.3579
 21
-40.0
 31
0.0
  0
LINE
  5
13E
330
1F
100
AcDbEntity
  8
0
  6
Continuous
 62
     7
370
    25
100
AcDbLine
 10
-11.8324805358
 20
0.0208692264
 30
0.0
 11
-11.5576407922
 21
-0.1873639466
 31
0.0
  0
LINE
  5
13F
330
1F
100
AcDbEntity
  8
0
  6
Continuous
 62
     7
370
    25
100
AcDbLine
 10
-11.5576407922
 20
2.0260775598
 30
0.0
 11
-11.8324805358
 21
1.8157410213
 31
0.0
  0
LINE
  5
140
330
1F
100
AcDbEntity
  8
0
  6
Continuous
 62
     7
370
    25
100
AcDbLine
 10
-7.5640510486
 20
0.7836897393
 30
0.0
 11
-7.5640510486
 21
-0.8316948761
 31
0.0
  0
LINE
  5
141
330
1F
100
AcDbEntity
  8
0
  6
Continuous
 62
     7
370
    25
100
AcDbLine
 10
-7.3137505678
 20
0.7836897393
 30
0.0
 11
-7.5640510486
 21
0.7836897393
 31
0.0
  0
LINE
  5
142
330
1F
100
AcDbEntity
  8
0
  6
Continuous
 62
     7
370
    25
100
AcDbLine
 10
-7.8781536127
 20
2.6683051239
 30
0.0
 11
-7.1917553755
 21
2.6683051239
 31
0.0
  0
LINE
  5
143
330
1F
100
AcDbEntity
  8
0
  6
Continuous
 62
     7
370
    25
100
AcDbLine
 10
-7.8781536127
 20
-0.8316948761
 30
0.0
 11
-7.8781536127
 21
2.6683051239
 31
0.0
  0
LINE
  5
144
330
1F
100
AcDbEntity
  8
0
  6
Continuous
 62
     7
370
    25
100
AcDbLine
 10
-7.5640510486
 20
-0.8316948761
 30
0.0
 11
-7.8781536127
 21
-0.8316948761
 31
0.0
  0
LINE
  5
145
330
1F
100
AcDbEntity
  8
0
  6
Continuous
 62
     7
370
    25
100
AcDbLine
 10
-4.2435382281
 20
-0.8316948761
 30
0.0
 11
-4.2435382281
 21
2.3093307649
 31
0.0
  0
LINE
  5
146
330
1F
100
AcDbEntity
  8
0
  6
Continuous
 62
     7
370
    25
100
AcDbLine
 10
-3.929435664
 20
-0.8316948761
 30
0.0
 11
-4.2435382281
 21
-0.8316948761
 31
0.0
  0
LINE
  5
147
330
1F
100
AcDbEntity
  8
0
  6
Continuous
 62
     7
370
    25
100
AcDbLine
 10
-3.929435664
 20
2.6683051239
 30
0.0
 11
-3.929435664
 21
-0.8316948761
 31
0.0
  0
LINE
  5
148
330
1F
100
AcDbEntity
  8
0
  6
Continuous
 62
     7
370
    25
100
AcDbLine
 10
-4.5765710807
 20
2.6683051239
 30
0.0
 11
-3.929435664
 21
2.6683051239
 31
0.0
  0
LINE
  5
149
330
1F
100
AcDbEntity
  8
0
  6
Continuous
 62
     7
370
    25
100
AcDbLine
 10
-4.7819997666
 20
2.3093307649
 30
0.0
 11
-4.5765710807
 21
2.6683051239
 31
0.0
  0
LINE
  5
14A
330
1F
100
AcDbEntity
  8
0
  6
Continuous
 62
     7
370
    25
100
AcDbLine
 10
-4.2435382281
 20
2.3093307649
 30
0.0
 11
-4.7819997666
 21
2.3093307649
 31
0.0
  0
LINE
  5
14B
330
1F
100
AcDbEntity
  8
0
  6
Continuous
 62
     7
370
    25
100
AcDbLine
 10
1.7244104898
 20
-0.8316948761
 30
0.0
 11
1.7244104898
 21
-0.0240025684
 31
0.0
  0
LINE
  5
14C
330
1F
100
AcDbEntity
  8
0
  6
Continuous
 62
     7
370
    25
100
AcDbLine
 10
2.0385130539
 20
-0.8316948761
 30
0.0
 11
1.7244104898
 21
-0.8316948761
 31
0.0
  0
LINE
  5
14D
330
1F
100
AcDbEntity
  8
0
  6
Continuous
 62
     7
370
    25
100
AcDbLine
 10
2.0385130539
 20
-0.0240025684
 30
0.0
 11
2.0385130539
 21
-0.8316948761
 31
0.0
  0
LINE
  5
14E
330
1F
100
AcDbEntity
  8
0
  6
Continuous
 62
     7
370
    25
100
AcDbLine
 10
2.4423592078
 20
-0.0240025684
 30
0.0
 11
2.0385130539
 21
-0.0240025684
 31
0.0
  0
LINE
  5
14F
330
1F
100
AcDbEntity
  8
0
  6
Continuous
 62
     7
370
    25
100
AcDbLine
 10
2.4423592078
 20
0.3349717905
 30
0.0
 11
2.4423592078
 21
-0.0240025684
 31
0.0
  0
LINE
  5
150
330
1F
100
AcDbEntity
  8
0
  6
Continuous
 62
     7
370
    25
100
AcDbLine
 10
2.0385130539
 20
0.3349717905
 30
0.0
 11
2.4423592078
 21
0.3349717905
 31
0.0
  0
LINE
  5
151
330
1F
100
AcDbEntity
  8
0
  6
Continuous
 62
     7
370
    25
100
AcDbLine
 10
2.0385130539
 20
2.7580487136
 30
0.0
 11
2.0385130539
 21
0.3349717905
 31
0.0
  0
LINE
  5
152
330
1F
100
AcDbEntity
  8
0
  6
Continuous
 62
     7
370
    25
100
AcDbLine
 10
1.9747109706
 20
2.7580487136
 30
0.0
 11
2.0385130539
 21
2.7580487136
 31
0.0
  0
LINE
  5
153
330
1F
100
AcDbEntity
  8
0
  6
Continuous
 62
     7
370
    25
100
AcDbLine
 10
0.0641540796
 20
-0.0240025684
 30
0.0
 11
1.9747109706
 21
2.7580487136
 31
0.0
  0
LINE
  5
154
330
1F
100
AcDbEntity
  8
0
  6
Continuous
 62
     7
370
    25
100
AcDbLine
 10
1.7244104898
 20
-0.0240025684
 30
0.0
 11
0.0641540796
 21
-0.0240025684
 31
0.0
  0
LINE
  5
155
330
1F
100
AcDbEntity
  8
0
  6
Continuous
 62
     7
370
    25
100
AcDbLine
 10
4.1026156181
 20
0.6939461495
 30
0.0
 11
4.1026156181
 21
0.3349717905
 31
0.0
  0
LINE
  5
156
330
1F
100
AcDbEntity
  8
0
  6
Continuous
 62
     7
370
    25
100
AcDbLine
 10
2.7564617719
 20
0.6939461495
 30
0.0
 11
4.1026156181
 21
0.6939461495
 31
0.0
  0
LINE
  5
157
330
1F
100
AcDbEntity
  8
0
  6
Continuous
 62
     7
370
    25
100
AcDbLine
 10
2.7564617719
 20
0.3349717905
 30
0.0
 11
2.7564617719
 21
0.6939461495
 31
0.0
  0
LINE
  5
158
330
1F
100
AcDbEntity
  8
0
  6
Continuous
 62
     7
370
    25
100
AcDbLine
 10
4.1026156181
 20
0.3349717905
 30
0.0
 11
2.7564617719
 21
0.3349717905
 31
0.0
  0
LINE
  5
159
330
1F
100
AcDbEntity
  8
0
  6
Continuous
 62
     7
370
    25
100
AcDbLine
 10
-7.5640510486
 20
1.1426640982
 30
0.0
 11
-6.9512705999
 21
1.1349517585
 31
0.0
  0
LINE
  5
15A
330
1F
100
AcDbEntity
  8
0
  6
Continuous
 62
     7
370
    25
100
AcDbLine
 10
-7.5640510486
 20
2.3093307649
 30
0.0
 11
-7.5640510486
 21
1.1426640982
 31
0.0
  0
LINE
  5
15B
330
1F
100
AcDbEntity
  8
0
  6
Continuous
 62
     7
370
    25
100
AcDbLine
 10
-6.9239268499
 20
2.3093307649
 30
0.0
 11
-7.5640510486
 21
2.3093307649
 31
0.0
  0
LINE
  5
15C
330
1F
100
AcDbEntity
  8
0
  6
Continuous
 62
     7
370
    25
100
AcDbLine
 10
-10.5255895102
 20
1.1426640982
 30
0.0
 11
-9.8847641896
 21
1.1377562457
 31
0.0
  0
LINE
  5
15D
330
1F
100
AcDbEntity
  8
0
  6
Continuous
 62
     7
370
    25
100
AcDbLine
 10
-10.5255895102
 20
2.3093307649
 30
0.0
 11
-10.5255895102
 21
1.1426640982
 31
0.0
  0
LINE
  5
15E
330
1F
100
AcDbEntity
  8
0
  6
Continuous
 62
     7
370
    25
100
AcDbLine
 10
-9.8693395102
 20
2.3093307649
 30
0.0
 11
-10.5255895102
 21
2.3093307649
 31
0.0
  0
LINE
  5
15F
330
1F
100
AcDbEntity
  8
0
  6
Continuous
 62
     7
370
    25
100
AcDbLine
 10
1.7244104898
 20
0.3349717905
 30
0.0
 11
1.7244104898
 21
1.8550038418
 31
0.0
  0
LINE
  5
160
330
1F
100
AcDbEntity
  8
0
  6
Continuous
 62
     7
370
    25
100
AcDbLine
 10
0.6811412591
 20
0.3349717905
 30
0.0
 11
1.7244104898
 21
0.3349717905
 31
0.0
  0
LINE
  5
161
330
1F
100
AcDbEntity
  8
0
  6
Continuous
 62
     7
370
    25
100
AcDbLine
 10
1.7244104898
 20
1.8550038418
 30
0.0
 11
0.6811412591
 21
0.3349717905
 31
0.0
  0
LINE
  5
162
330
1F
100
AcDbEntity
  8
0
  6
Continuous
 62
     7
370
    25
100
AcDbLine
 10
-0.9678972025
 20
1.8550038418
 30
0.0
 11
-2.0111664332
 21
0.3349717905
 31
0.0
  0
LINE
  5
163
330
1F
100
AcDbEntity
  8
0
  6
Continuous
 62
     7
370
    25
100
AcDbLine
 10
-0.9678972025
 20
0.3349717905
 30
0.0
 11
-0.9678972025
 21
1.8550038418
 31
0.0
  0
LINE
  5
164
330
1F
100
AcDbEntity
  8
0
  6
Continuous
 62
     7
370
    25
100
AcDbLine
 10
-2.0111664332
 20
0.3349717905
 30
0.0
 11
-0.9678972025
 21
0.3349717905
 31
0.0
  0
LINE
  5
165
330
1F
100
AcDbEntity
  8
0
  6
Continuous
 62
     7
370
    25
100
AcDbLine
 10
16.0
 20
-44.1021
 30
0.0
 11
22.0
 21
-44.1021
 31
0.0
  0
LINE
  5
166
330
1F
100
AcDbEntity
  8
0
  6
Continuous
 62
     7
370
    25
100
AcDbLine
 10
22.0
 20
-35.8979
 30
0.0
 11
16.0
 21
-35.8979
 31
0.0
  0
LINE
  5
167
330
1F
100
AcDbEntity
  8
0
  6
Continuous
 62
     7
370
    25
100
AcDbLine
 10
-16.0
 20
-44.1021
 30
0.0
 11
-22.0
 21
-44.1021
 31
0.0
  0
LINE
  5
168
330
1F
100
AcDbEntity
  8
0
  6
Continuous
 62
     7
370
    25
100
AcDbLine
 10
-22.0
 20
-35.8979
 30
0.0
 11
-16.0
 21
-35.8979
 31
0.0
  0
LINE
  5
169
330
1F
100
AcDbEntity
  8
0
  6
Continuous
 62
     7
370
    25
100
AcDbLine
 10
16.0
 20
44.1021
 30
0.0
 11
22.0
 21
44.1021
 31
0.0
  0
LINE
  5
16A
330
1F
100
AcDbEntity
  8
0
  6
Continuous
 62
     7
370
    25
100
AcDbLine
 10
22.0
 20
35.8979
 30
0.0
 11
16.0
 21
35.8979
 31
0.0
  0
LINE
  5
16B
330
1F
100
AcDbEntity
  8
0
  6
Continuous
 62
     7
370
    25
100
AcDbLine
 10
-22.0
 20
35.8979
 30
0.0
 11
-16.0
 21
35.8979
 31
0.0
  0
LINE
  5
16C
330
1F
100
AcDbEntity
  8
0
  6
Continuous
 62
     7
370
    25
100
AcDbLine
 10
-16.0
 20
44.1021
 30
0.0
 11
-22.0
 21
44.1021
 31
0.0
  0
ARC
  5
16D
330
1F
100
AcDbEntity
  8
0
  6
Continuous
 62
     7
370
    25
100
AcDbCircle
 10
-16.0
 20
-40.0
 30
0.0
 40
6.642100000000006
100
AcDbArc
 50
0.0
 51
90.0
  0
ARC
  5
16E
330
1F
100
AcDbEntity
  8
0
  6
Continuous
 62
     7
370
    25
100
AcDbCircle
 10
-22.0
 20
-40.0
 30
0.0
 40
6.64210000000001
100
AcDbArc
 50
90.0
 51
180.0
  0
ARC
  5
16F
330
1F
100
AcDbEntity
  8
0
  6
Continuous
 62
     7
370
    25
100
AcDbCircle
 10
-31.8171
 20
-46.825
 30
0.0
 40
3.174999999999997
100
AcDbArc
 50
270.0
 51
0.0
  0
ARC
  5
170
330
1F
100
AcDbEntity
  8
0
  6
Continuous
 62
     7
370
    25
100
AcDbCircle
 10
-66.825
 20
-46.825
 30
0.0
 40
3.174999999999997
100
AcDbArc
 50
180.0
 51
270.0
  0
ARC
  5
171
330
1F
100
AcDbEntity
  8
0
  6
Continuous
 62
     7
370
    25
100
AcDbCircle
 10
-66.825
 20
46.825
 30
0.0
 40
3.174999999999997
100
AcDbArc
 50
90.0
 51
180.0
  0
ARC
  5
172
330
1F
100
AcDbEntity
  8
0
  6
Continuous
 62
     7
370
    25
100
AcDbCircle
 10
-31.8171
 20
46.825
 30
0.0
 40
3.175000000000004
100
AcDbArc
 50
0.0
 51
90.0
  0
ARC
  5
173
330
1F
100
AcDbEntity
  8
0
  6
Continuous
 62
     7
370
    25
100
AcDbCircle
 10
-22.0
 20
40.0
 30
0.0
 40
6.642100000000006
100
AcDbArc
 50
180.0
 51
270.0
  0
ARC
  5
174
330
1F
100
AcDbEntity
  8
0
  6
Continuous
 62
     7
370
    25
100
AcDbCircle
 10
-16.0
 20
40.0
 30
0.0
 40
6.642100000000006
100
AcDbArc
 50
270.0
 51
0.0
  0
ARC
  5
175
330
1F
100
AcDbEntity
  8
0
  6
Continuous
 62
     7
370
    25
100
AcDbCircle
 10
-6.1829
 20
46.825
 30
0.0
 40
3.174999999999997
100
AcDbArc
 50
90.0
 51
180.0
  0
ARC
  5
176
330
1F
100
AcDbEntity
  8
0
  6
Continuous
 62
     7
370
    25
100
AcDbCircle
 10
6.1829
 20
46.825
 30
0.0
 40
3.174999999999993
100
AcDbArc
 50
0.0
 51
90.0
  0
ARC
  5
177
330
1F
100
AcDbEntity
  8
0
  6
Continuous
 62
     7
370
    25
100
AcDbCircle
 10
16.0
 20
40.0
 30
0.0
 40
6.642100000000006
100
AcDbArc
 50
180.0
 51
270.0
  0
ARC
  5
178
330
1F
100
AcDbEntity
  8
0
  6
Continuous
 62
     7
370
    25
100
AcDbCircle
 10
22.0
 20
40.0
 30
0.0
 40
6.642100000000013
100
AcDbArc
 50
270.0
 51
0.0
  0
ARC
  5
179
330
1F
100
AcDbEntity
  8
0
  6
Continuous
 62
     7
370
    25
100
AcDbCircle
 10
31.8171
 20
46.825
 30
0.0
 40
3.17499999999999
100
AcDbArc
 50
90.0
 51
180.0
  0
ARC
  5
17A
330
1F
100
AcDbEntity
  8
0
  6
Continuous
 62
     7
370
    25
100
AcDbCircle
 10
66.825
 20
46.825
 30
0.0
 40
3.174999999999983
100
AcDbArc
 50
0.0
 51
90.0
  0
ARC
  5
17B
330
1F
100
AcDbEntity
  8
0
  6
Continuous
 62
     7
370
    25
100
AcDbCircle
 10
66.825
 20
-46.825
 30
0.0
 40
3.174999999999997
100
AcDbArc
 50
270.0
 51
0.0
  0
ARC
  5
17C
330
1F
100
AcDbEntity
  8
0
  6
Continuous
 62
     7
370
    25
100
AcDbCircle
 10
31.8171
 20
-46.825
 30
0.0
 40
3.174999999999997
100
AcDbArc
 50
180.0
 51
270.0
  0
ARC
  5
17D
330
1F
100
AcDbEntity
  8
0
  6
Continuous
 62
     7
370
    25
100
AcDbCircle
 10
22.0
 20
-40.0
 30
0.0
 40
6.642100000000006
100
AcDbArc
 50
0.0
 51
90.0
  0
ARC
  5
17E
330
1F
100
AcDbEntity
  8
0
  6
Continuous
 62
     7
370
    25
100
AcDbCircle
 10
16.0
 20
-40.0
 30
0.0
 40
6.642100000000015
100
AcDbArc
 50
90.0
 51
180.0
  0
ARC
  5
17F
330
1F
100
AcDbEntity
  8
0
  6
Continuous
 62
     7
370
    25
100
AcDbCircle
 10
6.1829
 20
-46.825
 30
0.0
 40
3.174999999999997
100
AcDbArc
 50
270.0
 51
0.0
  0
ARC
  5
180
330
1F
100
AcDbEntity
  8
0
  6
Continuous
 62
     7
370
    25
100
AcDbCircle
 10
-6.1829
 20
-46.825
 30
0.0
 40
3.17499999999999
100
AcDbArc
 50
180.0
 51
270.0
  0
ARC
  5
181
330
1F
100
AcDbEntity
  8
0
  6
Continuous
 62
     7
370
    25
100
AcDbCircle
 10
16.0
 20
-40.0
 30
0.0
 40
4.1021
100
AcDbArc
 50
90.0
 51
270.0
  0
ARC
  5
182
330
1F
100
AcDbEntity
  8
0
  6
Continuous
 62
     7
370
    25
100
AcDbCircle
 10
22.0
 20
-40.0
 30
0.0
 40
4.1021
100
AcDbArc
 50
270.0
 51
90.0
  0
ARC
  5
183
330
1F
100
AcDbEntity
  8
0
  6
Continuous
 62
     7
370
    25
100
AcDbCircle
 10
-16.0
 20
-40.0
 30
0.0
 40
4.1021
100
AcDbArc
 50
270.0
 51
90.0
  0
ARC
  5
184
330
1F
100
AcDbEntity
  8
0
  6
Continuous
 62
     7
370
    25
100
AcDbCircle
 10
-22.0
 20
-40.0
 30
0.0
 40
4.1021
100
AcDbArc
 50
90.0
 51
270.0
  0
ARC
  5
185
330
1F
100
AcDbEntity
  8
0
  6
Continuous
 62
     7
370
    25
100
AcDbCircle
 10
16.0
 20
40.0
 30
0.0
 40
4.1021
100
AcDbArc
 50
90.0
 51
270.0
  0
ARC
  5
186
330
1F
100
AcDbEntity
  8
0
  6
Continuous
 62
     7
370
    25
100
AcDbCircle
 10
22.0
 20
40.0
 30
0.0
 40
4.1021
100
AcDbArc
 50
270.0
 51
90.0
  0
ARC
  5
187
330
1F
100
AcDbEntity
  8
0
  6
Continuous
 62
     7
370
    25
100
AcDbCircle
 10
-22.0
 20
40.0
 30
0.0
 40
4.1021
100
AcDbArc
 50
90.0
 51
270.0
  0
ARC
  5
188
330
1F
100
AcDbEntity
  8
0
  6
Continuous
 62
     7
370
    25
100
AcDbCircle
 10
-16.0
 20
40.0
 30
0.0
 40
4.1021
100
AcDbArc
 50
270.0
 51
90.0
  0
LINE
  5
1AD
330
1B
100
AcDbEntity
 67
     1
  8
0
  6
Continuous
 62
     7
370
    25
100
AcDbLine
 10
28.6421
 20
6.6548
 30
0.0
 11
28.6421
 21
15.875
 31
0.0
  0
LINE
  5
1AE
330
1B
100
AcDbEntity
 67
     1
  8
0
  6
Continuous
 62
     7
370
    25
100
AcDbLine
 10
31.8171
 20
15.875
 30
0.0
 11
31.8171
 21
6.6548
 31
0.0
  0
LINE
  5
1AF
330
1B
100
AcDbEntity
 67
     1
  8
0
  6
Continuous
 62
     7
370
    25
100
AcDbLine
 10
-31.8171
 20
6.6548
 30
0.0
 11
-31.8171
 21
15.875
 31
0.0
  0
LINE
  5
1B0
330
1B
100
AcDbEntity
 67
     1
  8
0
  6
Continuous
 62
     7
370
    25
100
AcDbLine
 10
-28.6421
 20
15.875
 30
0.0
 11
-28.6421
 21
6.6548
 31
0.0
  0
LINE
  5
1B1
330
1B
100
AcDbEntity
 67
     1
  8
0
  6
Continuous
 62
     7
370
    25
100
AcDbLine
 10
-66.825
 20
15.875
 30
0.0
 11
-66.825
 21
0.0
 31
0.0
  0
LINE
  5
1B2
330
1B
100
AcDbEntity
 67
     1
  8
0
  6
Continuous
 62
     7
370
    25
100
AcDbLine
 10
-70.0
 20
0.0
 30
0.0
 11
-70.0
 21
15.875
 31
0.0
  0
LINE
  5
1B3
330
1B
100
AcDbEntity
 67
     1
  8
0
  6
Continuous
 62
     7
370
    25
100
AcDbLine
 10
70.0
 20
15.875
 30
0.0
 11
70.0
 21
0.0
 31
0.0
  0
LINE
  5
1B4
330
1B
100
AcDbEntity
 67
     1
  8
0
  6
Continuous
 62
     7
370
    25
100
AcDbLine
 10
66.825
 20
0.0
 30
0.0
 11
66.825
 21
15.875
 31
0.0
  0
LINE
  5
1B5
330
1B
100
AcDbEntity
 67
     1
  8
0
  6
Continuous
 62
     7
370
    25
100
AcDbLine
 10
-70.0
 20
0.0
 30
0.0
 11
70.0
 21
0.0
 31
0.0
  0
LINE
  5
1B6
330
1B
100
AcDbEntity
 67
     1
  8
0
  6
Continuous
 62
     7
370
    25
100
AcDbLine
 10
6.1829
 20
6.6548
 30
0.0
 11
6.1829
 21
15.875
 31
0.0
  0
LINE
  5
1B7
330
1B
100
AcDbEntity
 67
     1
  8
0
  6
Continuous
 62
     7
370
    25
100
AcDbLine
 10
-6.1829
 20
15.875
 30
0.0
 11
-6.1829
 21
6.6548
 31
0.0
  0
LINE
  5
1B8
330
1B
100
AcDbEntity
 67
     1
  8
0
  6
Continuous
 62
     7
370
    25
100
AcDbLine
 10
6.1829
 20
6.6548
 30
0.0
 11
31.8171
 21
6.6548
 31
0.0
  0
LINE
  5
1B9
330
1B
100
AcDbEntity
 67
     1
  8
0
  6
Continuous
 62
     7
370
    25
100
AcDbLine
 10
-31.8171
 20
6.6548
 30
0.0
 11
-6.1829
 21
6.6548
 31
0.0
  0
LINE
  5
1BA
330
1B
100
AcDbEntity
 67
     1
  8
0
  6
Continuous
 62
     7
370
    25
100
AcDbLine
 10
-70.0
 20
15.875
 30
0.0
 11
70.0
 21
15.875
 31
0.0
  0
LINE
  5
1BB
330
1B
100
AcDbEntity
 67
     1
  8
0
  6
Continuous
 62
     7
370
    25
100
AcDbLine
 10
9.3579
 20
15.875
 30
0.0
 11
9.3579
 21
6.6548
 31
0.0
  0
LINE
  5
1BC
330
1B
100
AcDbEntity
 67
     1
  8
0
  6
Continuous
 62
     7
370
    25
100
AcDbLine
 10
-9.3579
 20
6.6548
 30
0.0
 11
-9.3579
 21
15.875
 31
0.0
  0
LINE
  5
1BD
330
1B
100
AcDbEntity
 67
     1
  8
0
  6
Continuous
 62
     7
370
    25
100
AcDbLine
 10
16.0
 20
6.6548
 30
0.0
 11
16.0
 21
15.875
 31
0.0
  0
LINE
  5
1BE
330
1B
100
AcDbEntity
 67
     1
  8
0
  6
Continuous
 62
     7
370
    25
100
AcDbLine
 10
22.0
 20
6.6548
 30
0.0
 11
22.0
 21
15.875
 31
0.0
  0
LINE
  5
1BF
330
1B
100
AcDbEntity
 67
     1
  8
0
  6
Continuous
 62
     7
370
    25
100
AcDbLine
 10
-16.0
 20
6.6548
 30
0.0
 11
-16.0
 21
15.875
 31
0.0
  0
LINE
  5
1C0
330
1B
100
AcDbEntity
 67
     1
  8
0
  6
Continuous
 62
     7
370
    25
100
AcDbLine
 10
-22.0
 20
6.6548
 30
0.0
 11
-22.0
 21
15.875
 31
0.0
  0
VIEWPORT
  5
1C1
330
1B
100
AcDbEntity
 67
     1
  8
0
100
AcDbViewport
 10
0.0
 20
0.0
 30
0.0
 40
205.6
 41
156.0
 68
     1
 69
     1
 12
0.0
 22
0.0
 13
0.0
 23
0.0
 14
10.0
 24
10.0
 15
10.0
 25
10.0
 16
0.0
 26
0.0
 36
1.0
 17
0.0
 27
0.0
 37
0.0
 42
50.0
 43
0.0
 44
0.0
 45
108.3501945525
 50
0.0
 51
0.0
 72
   100
 90
   557152
  1

281
     0
 71
     1
 74
     0
110
0.0
120
0.0
130
0.0
111
1.0
121
0.0
131
0.0
112
0.0
122
1.0
132
0.0
 79
     0
146
0.0
  0
ENDSEC
  0
SECTION
  2
OBJECTS
  0
DICTIONARY
  5
C
330
0
100
AcDbDictionary
281
     1
  3
ACAD_GROUP
350
D
  3
ACAD_LAYOUT
350
1A
  3
ACAD_MLINESTYLE
350
17
  3
ACAD_PLOTSETTINGS
350
19
  3
ACAD_PLOTSTYLENAME
350
E
  3
ACAD_SCALELIST
350
47
  0
DICTIONARY
  5
D
102
{ACAD_REACTORS
330
C
102
}
330
C
100
AcDbDictionary
281
     1
  0
DICTIONARY
  5
1A
102
{ACAD_REACTORS
330
C
102
}
330
C
100
AcDbDictionary
281
     1
  3
_Bottom
350
1E
  3
Layout2
350
26
  3
Model
350
22
  0
DICTIONARY
  5
17
102
{ACAD_REACTORS
330
C
102
}
330
C
100
AcDbDictionary
281
     1
  3
Standard
350
18
  0
DICTIONARY
  5
19
102
{ACAD_REACTORS
330
C
102
}
330
C
100
AcDbDictionary
281
     1
  0
ACDBDICTIONARYWDFLT
  5
E
102
{ACAD_REACTORS
330
C
102
}
330
C
100
AcDbDictionary
281
     1
  3
Normal
350
F
100
AcDbDictionaryWithDefault
340
F
  0
DICTIONARY
  5
47
102
{ACAD_REACTORS
330
C
102
}
330
C
100
AcDbDictionary
281
     1
  3
A0
350
48
  3
A1
350
49
  3
A2
350
4A
  3
A3
350
4B
  3
A4
350
4C
  3
A5
350
4D
  3
A6
350
4E
  3
A7
350
4F
  3
A8
350
50
  3
A9
350
51
  3
B0
350
52
  3
B1
350
53
  3
B2
350
54
  3
B3
350
55
  3
B4
350
56
  3
B5
350
57
  3
B6
350
58
  3
B7
350
59
  3
B8
350
5A
  3
B9
350
5B
  3
C0
350
5C
  3
C1
350
5D
  3
C2
350
5E
  3
C3
350
5F
  3
C4
350
60
  3
C5
350
61
  3
C6
350
62
  3
C7
350
63
  3
C8
350
64
  3
C9
350
65
  3
D0
350
66
  3
D1
350
67
  3
D2
350
68
  0
LAYOUT
  5
1E
102
{ACAD_REACTORS
330
1A
102
}
330
1A
100
AcDbPlotSettings
  1

  2
none_device
  4
ISO_A4_(210.00_x_297.00_MM)
  6

 40
7.5
 41
20.0
 42
7.5
 43
20.0
 44
210.0
 45
297.0
 46
0.0
 47
0.0
 48
0.0
 49
0.0
140
0.0
141
0.0
142
1.0
143
0.5447470817
 70
   688
 72
     1
 73
     1
 74
     1
  7

 75
     0
147
1.8357142857
148
70.0
149
0.0
100
AcDbLayout
  1
_Bottom
 70
     1
 71
     1
 10
-80.8949416342
 20
-4.0856031128
 11
80.8949416342
 21
110.3112840467
 12
0.0
 22
0.0
 32
0.0
 14
-70.0
 24
0.0
 34
0.0
 15
70.0
 25
15.875
 35
0.0
146
0.0
 13
0.0
 23
0.0
 33
0.0
 16
1.0
 26
0.0
 36
0.0
 17
0.0
 27
1.0
 37
0.0
 76
     0
330
1B
331
1C1
  0
LAYOUT
  5
26
102
{ACAD_REACTORS
330
1A
102
}
330
1A
100
AcDbPlotSettings
  1

  2
none_device
  4

  6

 40
0.0
 41
0.0
 42
0.0
 43
0.0
 44
0.0
 45
0.0
 46
0.0
 47
0.0
 48
0.0
 49
0.0
140
0.0
141
0.0
142
1.0
143
1.0
 70
   688
 72
     1
 73
     0
 74
     5
  7

 75
    16
147
1.0
148
0.0
149
0.0
100
AcDbLayout
  1
Layout2
 70
     1
 71
     2
 10
0.0
 20
0.0
 11
0.0
 21
0.0
 12
0.0
 22
0.0
 32
0.0
 14
0.0
 24
0.0
 34
0.0
 15
0.0
 25
0.0
 35
0.0
146
0.0
 13
0.0
 23
0.0
 33
0.0
 16
1.0
 26
0.0
 36
0.0
 17
0.0
 27
1.0
 37
0.0
 76
     0
330
23
  0
LAYOUT
  5
22
102
{ACAD_REACTORS
330
1A
102
}
330
1A
100
AcDbPlotSettings
  1

  2
none_device
  4
ANSI_A_(11.00_x_8.50_Inches)
  6

 40
6.35
 41
19.05
 42
6.35000508
 43
19.05000254
 44
279.4
 45
215.9
 46
133.34999746
 47
88.89999873
 48
0.0
 49
0.0
140
0.0
141
0.0
142
0.0777857143
143
1.0
 70
  1696
 72
     0
 73
     0
 74
     0
  7

 75
     0
147
0.0179189148
148
-1300.4909072572
149
0.0
100
AcDbLayout
  1
Model
 70
     1
 71
     0
 10
0.0
 20
0.0
 11
420.0
 21
297.0
 12
0.0
 22
0.0
 32
0.0
 14
-70.0
 24
-50.0
 34
0.0
 15
70.0
 25
50.0
 35
0.0
146
0.0
 13
0.0
 23
0.0
 33
0.0
 16
1.0
 26
0.0
 36
0.0
 17
0.0
 27
1.0
 37
0.0
 76
     0
330
1F
331
29
  0
MLINESTYLE
  5
18
102
{ACAD_REACTORS
330
17
102
}
330
17
100
AcDbMlineStyle
  2
Standard
 70
     0
  3

 62
   256
 51
90.0
 52
90.0
 71
     2
 49
0.5
 62
   256
  6
BYLAYER
 49
-0.5
 62
   256
  6
BYLAYER
  0
ACDBPLACEHOLDER
  5
F
102
{ACAD_REACTORS
330
E
102
}
330
E
  0
SCALE
  5
48
102
{ACAD_REACTORS
330
47
102
}
330
47
100
AcDbScale
 70
     0
300
1:1
140
1.0
141
1.0
290
     1
  0
SCALE
  5
49
102
{ACAD_REACTORS
330
47
102
}
330
47
100
AcDbScale
 70
     0
300
1:2
140
1.0
141
2.0
290
     0
  0
SCALE
  5
4A
102
{ACAD_REACTORS
330
47
102
}
330
47
100
AcDbScale
 70
     0
300
1:4
140
1.0
141
4.0
290
     0
  0
SCALE
  5
4B
102
{ACAD_REACTORS
330
47
102
}
330
47
100
AcDbScale
 70
     0
300
1:5
140
1.0
141
5.0
290
     0
  0
SCALE
  5
4C
102
{ACAD_REACTORS
330
47
102
}
330
47
100
AcDbScale
 70
     0
300
1:8
140
1.0
141
8.0
290
     0
  0
SCALE
  5
4D
102
{ACAD_REACTORS
330
47
102
}
330
47
100
AcDbScale
 70
     0
300
1:10
140
1.0
141
10.0
290
     0
  0
SCALE
  5
4E
102
{ACAD_REACTORS
330
47
102
}
330
47
100
AcDbScale
 70
     0
300
1:16
140
1.0
141
16.0
290
     0
  0
SCALE
  5
4F
102
{ACAD_REACTORS
330
47
102
}
330
47
100
AcDbScale
 70
     0
300
1:20
140
1.0
141
20.0
290
     0
  0
SCALE
  5
50
102
{ACAD_REACTORS
330
47
102
}
330
47
100
AcDbScale
 70
     0
300
1:30
140
1.0
141
30.0
290
     0
  0
SCALE
  5
51
102
{ACAD_REACTORS
330
47
102
}
330
47
100
AcDbScale
 70
     0
300
1:40
140
1.0
141
40.0
290
     0
  0
SCALE
  5
52
102
{ACAD_REACTORS
330
47
102
}
330
47
100
AcDbScale
 70
     0
300
1:50
140
1.0
141
50.0
290
     0
  0
SCALE
  5
53
102
{ACAD_REACTORS
330
47
102
}
330
47
100
AcDbScale
 70
     0
300
1:100
140
1.0
141
100.0
290
     0
  0
SCALE
  5
54
102
{ACAD_REACTORS
330
47
102
}
330
47
100
AcDbScale
 70
     0
300
2:1
140
2.0
141
1.0
290
     0
  0
SCALE
  5
55
102
{ACAD_REACTORS
330
47
102
}
330
47
100
AcDbScale
 70
     0
300
4:1
140
4.0
141
1.0
290
     0
  0
SCALE
  5
56
102
{ACAD_REACTORS
330
47
102
}
330
47
100
AcDbScale
 70
     0
300
8:1
140
8.0
141
1.0
290
     0
  0
SCALE
  5
57
102
{ACAD_REACTORS
330
47
102
}
330
47
100
AcDbScale
 70
     0
300
10:1
140
10.0
141
1.0
290
     0
  0
SCALE
  5
58
102
{ACAD_REACTORS
330
47
102
}
330
47
100
AcDbScale
 70
     0
300
100:1
140
100.0
141
1.0
290
     0
  0
SCALE
  5
59
102
{ACAD_REACTORS
330
47
102
}
330
47
100
AcDbScale
 70
     0
300
1/128" = 1'-0"
140
0.0078125
141
12.0
290
     0
  0
SCALE
  5
5A
102
{ACAD_REACTORS
330
47
102
}
330
47
100
AcDbScale
 70
     0
300
1/64" = 1'-0"
140
0.015625
141
12.0
290
     0
  0
SCALE
  5
5B
102
{ACAD_REACTORS
330
47
102
}
330
47
100
AcDbScale
 70
     0
300
1/32" = 1'-0"
140
0.03125
141
12.0
290
     0
  0
SCALE
  5
5C
102
{ACAD_REACTORS
330
47
102
}
330
47
100
AcDbScale
 70
     0
300
1/16" = 1'-0"
140
0.0625
141
12.0
290
     0
  0
SCALE
  5
5D
102
{ACAD_REACTORS
330
47
102
}
330
47
100
AcDbScale
 70
     0
300
3/32" = 1'-0"
140
0.09375
141
12.0
290
     0
  0
SCALE
  5
5E
102
{ACAD_REACTORS
330
47
102
}
330
47
100
AcDbScale
 70
     0
300
1/8" = 1'-0"
140
0.125
141
12.0
290
     0
  0
SCALE
  5
5F
102
{ACAD_REACTORS
330
47
102
}
330
47
100
AcDbScale
 70
     0
300
3/16" = 1'-0"
140
0.1875
141
12.0
290
     0
  0
SCALE
  5
60
102
{ACAD_REACTORS
330
47
102
}
330
47
100
AcDbScale
 70
     0
300
1/4" = 1'-0"
140
0.25
141
12.0
290
     0
  0
SCALE
  5
61
102
{ACAD_REACTORS
330
47
102
}
330
47
100
AcDbScale
 70
     0
300
3/8" = 1'-0"
140
0.375
141
12.0
290
     0
  0
SCALE
  5
62
102
{ACAD_REACTORS
330
47
102
}
330
47
100
AcDbScale
 70
     0
300
1/2" = 1'-0"
140
0.5
141
12.0
290
     0
  0
SCALE
  5
63
102
{ACAD_REACTORS
330
47
102
}
330
47
100
AcDbScale
 70
     0
300
3/4" = 1'-0"
140
0.75
141
12.0
290
     0
  0
SCALE
  5
64
102
{ACAD_REACTORS
330
47
102
}
330
47
100
AcDbScale
 70
     0
300
1" = 1'-0"
140
1.0
141
12.0
290
     0
  0
SCALE
  5
65
102
{ACAD_REACTORS
330
47
102
}
330
47
100
AcDbScale
 70
     0
300
1-1/2" = 1'-0"
140
1.5
141
12.0
290
     0
  0
SCALE
  5
66
102
{ACAD_REACTORS
330
47
102
}
330
47
100
AcDbScale
 70
     0
300
3" = 1'-0"
140
3.0
141
12.0
290
     0
  0
SCALE
  5
67
102
{ACAD_REACTORS
330
47
102
}
330
47
100
AcDbScale
 70
     0
300
6" = 1'-0"
140
6.0
141
12.0
290
     0
  0
SCALE
  5
68
102
{ACAD_REACTORS
330
47
102
}
330
47
100
AcDbScale
 70
     0
300
1'-0" = 1'-0"
140
12.0
141
12.0
290
     0
  0
ENDSEC
  0
EOF
