  0
SECTION
  2
HEADER
  9
$ACADVER
  1
AC1015
  9
$ACADMAINTVER
 70
     6
  9
$DWGCODEPAGE
  3
ANSI_1252
  9
$INSBASE
 10
0.0
 20
0.0
 30
0.0
  9
$EXTMIN
 10
-4.0122547231
 20
1.4830497964
 30
0.0
  9
$EXTMAX
 10
0.8538870092
 20
3.5598214499
 30
0.0
  9
$LIMMIN
 10
0.0
 20
0.0
  9
$LIMMAX
 10
12.0
 20
9.0
  9
$ORTHOMODE
 70
     0
  9
$REGENMODE
 70
     1
  9
$FILLMODE
 70
     1
  9
$QTEXTMODE
 70
     0
  9
$MIRRTEXT
 70
     1
  9
$LTSCALE
 40
1.0
  9
$ATTMODE
 70
     1
  9
$TEXTSIZE
 40
0.1377952756
  9
$TRACEWID
 40
0.05
  9
$TEXTSTYLE
  7
Standard
  9
$CLAYER
  8
0
  9
$CELTYPE
  6
ByLayer
  9
$CECOLOR
 62
   256
  9
$CELTSCALE
 40
1.0
  9
$DISPSILH
 70
     0
  9
$DIMSCALE
 40
1.0
  9
$DIMASZ
 40
0.13
  9
$DIMEXO
 40
0.0393700787
  9
$DIMDLI
 40
0.38
  9
$DIMRND
 40
0.0
  9
$DIMDLE
 40
0.0
  9
$DIMEXE
 40
0.0393700787
  9
$DIMTP
 40
0.0
  9
$DIMTM
 40
0.0
  9
$DIMTXT
 40
0.1377952756
  9
$DIMCEN
 40
0.09
  9
$DIMTSZ
 40
0.0
  9
$DIMTOL
 70
     0
  9
$DIMLIM
 70
     0
  9
$DIMTIH
 70
     1
  9
$DIMTOH
 70
     1
  9
$DIMSE1
 70
     0
  9
$DIMSE2
 70
     0
  9
$DIMTAD
 70
     1
  9
$DIMZIN
 70
     0
  9
$DIMBLK
  1

  9
$DIMASO
 70
     1
  9
$DIMSHO
 70
     1
  9
$DIMPOST
  1

  9
$DIMAPOST
  1

  9
$DIMALT
 70
     0
  9
$DIMALTD
 70
     2
  9
$DIMALTF
 40
25.4
  9
$DIMLFAC
 40
1.0
  9
$DIMTOFL
 70
     0
  9
$DIMTVP
 40
0.0
  9
$DIMTIX
 70
     0
  9
$DIMSOXD
 70
     0
  9
$DIMSAH
 70
     0
  9
$DIMBLK1
  1

  9
$DIMBLK2
  1

  9
$DIMSTYLE
  2
Standard
  9
$DIMCLRD
 70
     0
  9
$DIMCLRE
 70
     0
  9
$DIMCLRT
 70
     0
  9
$DIMTFAC
 40
1.0
  9
$DIMGAP
 40
0.06
  9
$DIMJUST
 70
     0
  9
$DIMSD1
 70
     0
  9
$DIMSD2
 70
     0
  9
$DIMTOLJ
 70
     1
  9
$DIMTZIN
 70
     0
  9
$DIMALTZ
 70
     0
  9
$DIMALTTZ
 70
     0
  9
$DIMUPT
 70
     0
  9
$DIMDEC
 70
     2
  9
$DIMTDEC
 70
     2
  9
$DIMALTU
 70
     2
  9
$DIMALTTD
 70
     2
  9
$DIMTXSTY
  7
Standard
  9
$DIMAUNIT
 70
     0
  9
$DIMADEC
 70
     2
  9
$DIMALTRND
 40
0.0
  9
$DIMAZIN
 70
     0
  9
$DIMDSEP
 70
    46
  9
$DIMATFIT
 70
     3
  9
$DIMFRAC
 70
     0
  9
$DIMLDRBLK
  1

  9
$DIMLUNIT
 70
     2
  9
$DIMLWD
 70
    -2
  9
$DIMLWE
 70
    -2
  9
$DIMTMOVE
 70
     0
  9
$LUNITS
 70
     2
  9
$LUPREC
 70
     2
  9
$SKETCHINC
 40
0.1
  9
$FILLETRAD
 40
0.5
  9
$AUNITS
 70
     0
  9
$AUPREC
 70
     2
  9
$MENU
  1
.
  9
$ELEVATION
 40
0.0
  9
$PELEVATION
 40
0.0
  9
$THICKNESS
 40
0.0
  9
$LIMCHECK
 70
     0
  9
$CHAMFERA
 40
0.0
  9
$CHAMFERB
 40
0.0
  9
$CHAMFERC
 40
0.0
  9
$CHAMFERD
 40
0.0
  9
$SKPOLY
 70
     0
  9
$TDCREATE
 40
2458305.549808241
  9
$TDUCREATE
 40
2458305.841474907
  9
$TDUPDATE
 40
2458305.549861678
  9
$TDUUPDATE
 40
2458305.841528345
  9
$TDINDWG
 40
0.0000000116
  9
$TDUSRTIMER
 40
0.0000000116
  9
$USRTIMER
 70
     1
  9
$ANGBASE
 50
0.0
  9
$ANGDIR
 70
     0
  9
$PDMODE
 70
     0
  9
$PDSIZE
 40
-1.0
  9
$PLINEWID
 40
0.0
  9
$SPLFRAME
 70
     0
  9
$SPLINETYPE
 70
     6
  9
$SPLINESEGS
 70
     8
  9
$HANDSEED
  5
1F8
  9
$SURFTAB1
 70
     6
  9
$SURFTAB2
 70
     6
  9
$SURFTYPE
 70
     6
  9
$SURFU
 70
     6
  9
$SURFV
 70
     6
  9
$UCSBASE
  2

  9
$UCSNAME
  2

  9
$UCSORG
 10
0.0
 20
0.0
 30
0.0
  9
$UCSXDIR
 10
1.0
 20
0.0
 30
0.0
  9
$UCSYDIR
 10
0.0
 20
1.0
 30
0.0
  9
$UCSORTHOREF
  2

  9
$UCSORTHOVIEW
 70
     0
  9
$UCSORGTOP
 10
0.0
 20
0.0
 30
0.0
  9
$UCSORGBOTTOM
 10
0.0
 20
0.0
 30
0.0
  9
$UCSORGLEFT
 10
0.0
 20
0.0
 30
0.0
  9
$UCSORGRIGHT
 10
0.0
 20
0.0
 30
0.0
  9
$UCSORGFRONT
 10
0.0
 20
0.0
 30
0.0
  9
$UCSORGBACK
 10
0.0
 20
0.0
 30
0.0
  9
$PUCSBASE
  2

  9
$PUCSNAME
  2

  9
$PUCSORG
 10
0.0
 20
0.0
 30
0.0
  9
$PUCSXDIR
 10
1.0
 20
0.0
 30
0.0
  9
$PUCSYDIR
 10
0.0
 20
1.0
 30
0.0
  9
$PUCSORTHOREF
  2

  9
$PUCSORTHOVIEW
 70
     0
  9
$PUCSORGTOP
 10
0.0
 20
0.0
 30
0.0
  9
$PUCSORGBOTTOM
 10
0.0
 20
0.0
 30
0.0
  9
$PUCSORGLEFT
 10
0.0
 20
0.0
 30
0.0
  9
$PUCSORGRIGHT
 10
0.0
 20
0.0
 30
0.0
  9
$PUCSORGFRONT
 10
0.0
 20
0.0
 30
0.0
  9
$PUCSORGBACK
 10
0.0
 20
0.0
 30
0.0
  9
$USERI1
 70
     0
  9
$USERI2
 70
     0
  9
$USERI3
 70
     0
  9
$USERI4
 70
     0
  9
$USERI5
 70
     0
  9
$USERR1
 40
0.0
  9
$USERR2
 40
0.0
  9
$USERR3
 40
0.0
  9
$USERR4
 40
0.0
  9
$USERR5
 40
0.0
  9
$WORLDVIEW
 70
     1
  9
$SHADEDGE
 70
     3
  9
$SHADEDIF
 70
    70
  9
$TILEMODE
 70
     0
  9
$MAXACTVP
 70
    64
  9
$PINSBASE
 10
0.0
 20
0.0
 30
0.0
  9
$PLIMCHECK
 70
     0
  9
$PEXTMIN
 10
-4.0122547231
 20
1.4830497964
 30
0.0
  9
$PEXTMAX
 10
0.8538870092
 20
3.5598214499
 30
0.0
  9
$PLIMMIN
 10
0.0
 20
0.0
  9
$PLIMMAX
 10
0.0
 20
0.0
  9
$UNITMODE
 70
     0
  9
$VISRETAIN
 70
     1
  9
$PLINEGEN
 70
     0
  9
$PSLTSCALE
 70
     1
  9
$TREEDEPTH
 70
  3020
  9
$CMLSTYLE
  2
Standard
  9
$CMLJUST
 70
     0
  9
$CMLSCALE
 40
1.0
  9
$PROXYGRAPHICS
 70
     1
  9
$MEASUREMENT
 70
     0
  9
$CELWEIGHT
370
    -1
  9
$ENDCAPS
280
     0
  9
$JOINSTYLE
280
     0
  9
$LWDISPLAY
290
     1
  9
$INSUNITS
 70
     1
  9
$HYPERLINKBASE
  1

  9
$STYLESHEET
  1

  9
$XEDIT
290
     1
  9
$CEPSNTYPE
380
     0
  9
$PSTYLEMODE
290
     1
  9
$FINGERPRINTGUID
  2
{2543D031-8242-4DDE-969E-556B62309943}
  9
$VERSIONGUID
  2
{FAEB1C32-E019-11D5-929B-00C0DF256EC4}
  9
$EXTNAMES
290
     1
  9
$PSVPSCALE
 40
0.0
  9
$OLESTARTUP
290
     0
  0
ENDSEC
  0
SECTION
  2
CLASSES
  0
CLASS
  1
ACDBDICTIONARYWDFLT
  2
AcDbDictionaryWithDefault
  3
ObjectDBX Classes
 90
        0
280
     0
281
     0
  0
CLASS
  1
VISUALSTYLE
  2
AcDbVisualStyle
  3
ObjectDBX Classes
 90
     4095
280
     0
281
     0
  0
CLASS
  1
MATERIAL
  2
AcDbMaterial
  3
ObjectDBX Classes
 90
     1153
280
     0
281
     0
  0
CLASS
  1
SCALE
  2
AcDbScale
  3
ObjectDBX Classes
 90
     1153
280
     0
281
     0
  0
CLASS
  1
TABLESTYLE
  2
AcDbTableStyle
  3
ObjectDBX Classes
 90
     4095
280
     0
281
     0
  0
CLASS
  1
MLEADERSTYLE
  2
AcDbMLeaderStyle
  3
ACDB_MLEADERSTYLE_CLASS
 90
     4095
280
     0
281
     0
  0
CLASS
  1
SUN
  2
AcDbSun
  3
SCENEOE
 90
     1153
280
     0
281
     0
  0
CLASS
  1
ACDBPLACEHOLDER
  2
AcDbPlaceHolder
  3
ObjectDBX Classes
 90
        0
280
     0
281
     0
  0
CLASS
  1
LAYOUT
  2
AcDbLayout
  3
ObjectDBX Classes
 90
        0
280
     0
281
     0
  0
ENDSEC
  0
SECTION
  2
TABLES
  0
TABLE
  2
VPORT
  5
8
330
0
100
AcDbSymbolTable
 70
     1
  0
VPORT
  5
29
330
8
100
AcDbSymbolTableRecord
100
AcDbViewportTableRecord
  2
*Active
 70
     0
 10
0.0
 20
0.0
 11
1.0
 21
1.0
 12
-1.579183857
 22
2.5214356232
 13
0.0
 23
0.0
 14
0.5
 24
0.5
 15
0.5
 25
0.5
 16
0.0
 26
0.0
 36
1.0
 17
0.0
 27
0.0
 37
0.0
 40
2.1183070866
 41
2.3431279621
 42
50.0
 43
0.0
 44
0.0
 50
0.0
 51
0.0
 71
     0
 72
   100
 73
     1
 74
     3
 75
     0
 76
     0
 77
     0
 78
     0
281
     0
 65
     1
110
0.0
120
0.0
130
0.0
111
1.0
121
0.0
131
0.0
112
0.0
122
1.0
132
0.0
 79
     0
146
0.0
  0
ENDTAB
  0
TABLE
  2
LTYPE
  5
5
330
0
100
AcDbSymbolTable
 70
     6
  0
LTYPE
  5
14
330
5
100
AcDbSymbolTableRecord
100
AcDbLinetypeTableRecord
  2
ByBlock
 70
     0
  3

 72
    65
 73
     0
 40
0.0
  0
LTYPE
  5
15
330
5
100
AcDbSymbolTableRecord
100
AcDbLinetypeTableRecord
  2
ByLayer
 70
     0
  3

 72
    65
 73
     0
 40
0.0
  0
LTYPE
  5
16
330
5
100
AcDbSymbolTableRecord
100
AcDbLinetypeTableRecord
  2
Continuous
 70
     0
  3
Solid line
 72
    65
 73
     0
 40
0.0
  0
LTYPE
  5
6E
330
5
100
AcDbSymbolTableRecord
100
AcDbLinetypeTableRecord
  2
HIDDEN
 70
     0
  3
Hidden __ __ __ __ __ __ __ __ __ __ __ __ __ __
 72
    65
 73
     2
 40
0.075
 49
0.05
 74
     0
 49
-0.025
 74
     0
  0
LTYPE
  5
6F
330
5
100
AcDbSymbolTableRecord
100
AcDbLinetypeTableRecord
  2
PHANTOM
 70
     0
  3
Phantom ______  __  __  ______  __  __  ______
 72
    65
 73
     6
 40
0.5
 49
0.25
 74
     0
 49
-0.05
 74
     0
 49
0.05
 74
     0
 49
-0.05
 74
     0
 49
0.05
 74
     0
 49
-0.05
 74
     0
  0
LTYPE
  5
70
330
5
100
AcDbSymbolTableRecord
100
AcDbLinetypeTableRecord
  2
CENTER
 70
     0
  3
Center ____ _ ____ _ ____ _ ____ _ ____ _ ____
 72
    65
 73
     4
 40
0.4
 49
0.25
 74
     0
 49
-0.05
 74
     0
 49
0.05
 74
     0
 49
-0.05
 74
     0
  0
LTYPE
  5
71
330
5
100
AcDbSymbolTableRecord
100
AcDbLinetypeTableRecord
  2
CENTERX2
 70
     0
  3
Center (2x) ________  __  ________  __  _____
 72
    65
 73
     4
 40
0.8
 49
0.5
 74
     0
 49
-0.1
 74
     0
 49
0.1
 74
     0
 49
-0.1
 74
     0
  0
LTYPE
  5
72
330
5
100
AcDbSymbolTableRecord
100
AcDbLinetypeTableRecord
  2
DOT2
 70
     0
  3
Dot (.5x) ........................................
 72
    65
 73
     2
 40
0.025
 49
0.0
 74
     0
 49
-0.025
 74
     0
  0
ENDTAB
  0
TABLE
  2
LAYER
  5
2
330
0
100
AcDbSymbolTable
 70
     1
  0
LAYER
  5
10
330
2
100
AcDbSymbolTableRecord
100
AcDbLayerTableRecord
  2
0
 70
     0
 62
     7
  6
Continuous
370
    -3
390
F
  0
ENDTAB
  0
TABLE
  2
STYLE
  5
3
330
0
100
AcDbSymbolTable
 70
     1
  0
STYLE
  5
11
330
3
100
AcDbSymbolTableRecord
100
AcDbTextStyleTableRecord
  2
Standard
 70
     0
 40
0.0
 41
1.0
 50
0.0
 71
     0
 42
0.1377952756
  3
txt
  4

  0
ENDTAB
  0
TABLE
  2
VIEW
  5
6
330
0
100
AcDbSymbolTable
 70
     0
  0
ENDTAB
  0
TABLE
  2
UCS
  5
7
330
0
100
AcDbSymbolTable
 70
     0
  0
ENDTAB
  0
TABLE
  2
APPID
  5
9
330
0
100
AcDbSymbolTable
 70
     1
  0
APPID
  5
12
330
9
100
AcDbSymbolTableRecord
100
AcDbRegAppTableRecord
  2
ACAD
 70
     0
  0
ENDTAB
  0
TABLE
  2
DIMSTYLE
  5
A
330
0
100
AcDbSymbolTable
 70
     1
100
AcDbDimStyleTable
  0
DIMSTYLE
105
27
330
A
100
AcDbSymbolTableRecord
100
AcDbDimStyleTableRecord
  2
Standard
 70
     0
178
     0
340
11
  0
ENDTAB
  0
TABLE
  2
BLOCK_RECORD
  5
1
330
0
100
AcDbSymbolTable
 70
     1
  0
BLOCK_RECORD
  5
1F
330
1
100
AcDbSymbolTableRecord
100
AcDbBlockTableRecord
  2
*Model_Space
340
22
  0
BLOCK_RECORD
  5
23
330
1
100
AcDbSymbolTableRecord
100
AcDbBlockTableRecord
  2
*Paper_Space
340
26
  0
BLOCK_RECORD
  5
1B
330
1
100
AcDbSymbolTableRecord
100
AcDbBlockTableRecord
  2
*Paper_Space0
340
1E
  0
ENDTAB
  0
ENDSEC
  0
SECTION
  2
BLOCKS
  0
BLOCK
  5
20
330
1F
100
AcDbEntity
  8
0
100
AcDbBlockBegin
  2
*Model_Space
 70
     0
 10
0.0
 20
0.0
 30
0.0
  3
*Model_Space
  1

  0
ENDBLK
  5
21
330
1F
100
AcDbEntity
  8
0
100
AcDbBlockEnd
  0
BLOCK
  5
24
330
23
100
AcDbEntity
 67
     1
  8
0
100
AcDbBlockBegin
  2
*Paper_Space
 70
     0
 10
0.0
 20
0.0
 30
0.0
  3
*Paper_Space
  1

  0
ENDBLK
  5
25
330
23
100
AcDbEntity
 67
     1
  8
0
100
AcDbBlockEnd
  0
BLOCK
  5
1C
330
1B
100
AcDbEntity
  8
0
100
AcDbBlockBegin
  2
*Paper_Space0
 70
     0
 10
0.0
 20
0.0
 30
0.0
  3
*Paper_Space0
  1

  0
LINE
  5
108
330
1B
100
AcDbEntity
  8
0
  6
Continuous
 62
     7
370
    25
100
AcDbLine
 10
-2.1890400435
 20
2.6936797177
 30
0.0
 11
-1.9455203584
 21
2.6936797177
 31
0.0
  0
LINE
  5
109
330
1B
100
AcDbEntity
  8
0
  6
Continuous
 62
     7
370
    25
100
AcDbLine
 10
-1.9455203584
 20
3.5598214499
 30
0.0
 11
-2.2211109096
 21
3.5598214499
 31
0.0
  0
LINE
  5
10A
330
1B
100
AcDbEntity
  8
0
  6
Continuous
 62
     7
370
    25
100
AcDbLine
 10
-2.2211109096
 20
1.6169080641
 30
0.0
 11
-1.9455203584
 21
1.6169080641
 31
0.0
  0
LINE
  5
10B
330
1B
100
AcDbEntity
  8
0
  6
Continuous
 62
     7
370
    25
100
AcDbLine
 10
-1.9455203584
 20
2.4830497964
 30
0.0
 11
-2.1890400435
 21
2.4830497964
 31
0.0
  0
LINE
  5
10C
330
1B
100
AcDbEntity
  8
0
  6
Continuous
 62
     7
370
    25
100
AcDbLine
 10
-3.0551817758
 20
2.7386403476
 30
0.0
 11
-3.0551817758
 21
2.4630497964
 31
0.0
  0
LINE
  5
10D
330
1B
100
AcDbEntity
  8
0
  6
Continuous
 62
     7
370
    25
100
AcDbLine
 10
-2.1890400435
 20
2.4630497964
 30
0.0
 11
-2.1890400435
 21
2.7386403476
 31
0.0
  0
LINE
  5
10E
330
1B
100
AcDbEntity
  8
0
  6
Continuous
 62
     7
370
    25
100
AcDbLine
 10
-2.3141109096
 20
1.8214789302
 30
0.0
 11
-2.2211109096
 21
1.8214789302
 31
0.0
  0
LINE
  5
10F
330
1B
100
AcDbEntity
  8
0
  6
Continuous
 62
     7
370
    25
100
AcDbLine
 10
-2.2211109096
 20
2.2784789302
 30
0.0
 11
-2.3141109096
 21
2.2784789302
 31
0.0
  0
LINE
  5
110
330
1B
100
AcDbEntity
  8
0
  6
Continuous
 62
     7
370
    25
100
AcDbLine
 10
-2.2211109096
 20
3.3552505838
 30
0.0
 11
-2.3141109096
 21
3.3552505838
 31
0.0
  0
LINE
  5
111
330
1B
100
AcDbEntity
  8
0
  6
Continuous
 62
     7
370
    25
100
AcDbLine
 10
-2.3141109096
 20
2.8982505838
 30
0.0
 11
-2.2211109096
 21
2.8982505838
 31
0.0
  0
LINE
  5
112
330
1B
100
AcDbEntity
  8
0
  6
Continuous
 62
     7
370
    25
100
AcDbLine
 10
-1.7368589411
 20
3.1267505838
 30
0.0
 11
-1.9455203584
 21
3.1267505838
 31
0.0
  0
LINE
  5
113
330
1B
100
AcDbEntity
  8
0
  6
Continuous
 62
     7
370
    25
100
AcDbLine
 10
-1.7368589411
 20
3.3826560956
 30
0.0
 11
-1.9455203584
 21
3.3826560956
 31
0.0
  0
LINE
  5
114
330
1B
100
AcDbEntity
  8
0
  6
Continuous
 62
     7
370
    25
100
AcDbLine
 10
-1.7368589411
 20
3.3826560956
 30
0.0
 11
-1.7368589411
 21
2.870845072
 31
0.0
  0
LINE
  5
115
330
1B
100
AcDbEntity
  8
0
  6
Continuous
 62
     7
370
    25
100
AcDbLine
 10
-1.7368589411
 20
2.870845072
 30
0.0
 11
-1.9455203584
 21
2.870845072
 31
0.0
  0
LINE
  5
116
330
1B
100
AcDbEntity
  8
0
  6
Continuous
 62
     7
370
    25
100
AcDbLine
 10
-3.1891109096
 20
3.4830497964
 30
0.0
 11
-2.3141109096
 21
3.4830497964
 31
0.0
  0
LINE
  5
117
330
1B
100
AcDbEntity
  8
0
  6
Continuous
 62
     7
370
    25
100
AcDbLine
 10
-2.3141109096
 20
2.7386403476
 30
0.0
 11
-2.3141109096
 21
3.4830497964
 31
0.0
  0
LINE
  5
118
330
1B
100
AcDbEntity
  8
0
  6
Continuous
 62
     7
370
    25
100
AcDbLine
 10
-2.3141109096
 20
2.7530497964
 30
0.0
 11
-3.1891109096
 21
2.7530497964
 31
0.0
  0
LINE
  5
119
330
1B
100
AcDbEntity
  8
0
  6
Continuous
 62
     7
370
    25
100
AcDbLine
 10
-2.3141109096
 20
1.4830497964
 30
0.0
 11
-2.3141109096
 21
2.4630497964
 31
0.0
  0
LINE
  5
11A
330
1B
100
AcDbEntity
  8
0
  6
Continuous
 62
     7
370
    25
100
AcDbLine
 10
-2.1890400435
 20
2.4630497964
 30
0.0
 11
-3.1891109096
 21
2.4630497964
 31
0.0
  0
LINE
  5
11B
330
1B
100
AcDbEntity
  8
0
  6
Continuous
 62
     7
370
    25
100
AcDbLine
 10
-3.1891109096
 20
1.4830497964
 30
0.0
 11
-3.1891109096
 21
3.4830497964
 31
0.0
  0
LINE
  5
11C
330
1B
100
AcDbEntity
  8
0
  6
Continuous
 62
     7
370
    25
100
AcDbLine
 10
-3.1891109096
 20
1.4830497964
 30
0.0
 11
-2.3141109096
 21
1.4830497964
 31
0.0
  0
LINE
  5
11D
330
1B
100
AcDbEntity
  8
0
  6
Continuous
 62
     7
370
    25
100
AcDbLine
 10
-2.9391109096
 20
2.7386403476
 30
0.0
 11
-2.9391109096
 21
2.7530497964
 31
0.0
  0
LINE
  5
11E
330
1B
100
AcDbEntity
  8
0
  6
Continuous
 62
     7
370
    25
100
AcDbLine
 10
-2.2211109096
 20
3.5598214499
 30
0.0
 11
-2.2211109096
 21
2.7386403476
 31
0.0
  0
LINE
  5
11F
330
1B
100
AcDbEntity
  8
0
  6
Continuous
 62
     7
370
    25
100
AcDbLine
 10
-1.9455203584
 20
3.5598214499
 30
0.0
 11
-1.9455203584
 21
2.6936797177
 31
0.0
  0
LINE
  5
120
330
1B
100
AcDbEntity
  8
0
  6
Continuous
 62
     7
370
    25
100
AcDbLine
 10
-1.9455203584
 20
2.4830497964
 30
0.0
 11
-1.9455203584
 21
1.6169080641
 31
0.0
  0
LINE
  5
121
330
1B
100
AcDbEntity
  8
0
  6
Continuous
 62
     7
370
    25
100
AcDbLine
 10
-2.2211109096
 20
2.4630497964
 30
0.0
 11
-2.2211109096
 21
1.6169080641
 31
0.0
  0
LINE
  5
122
330
1B
100
AcDbEntity
  8
0
  6
Continuous
 62
     7
370
    25
100
AcDbLine
 10
-2.1890400435
 20
2.7386403476
 30
0.0
 11
-3.0551817758
 21
2.7386403476
 31
0.0
  0
LINE
  5
123
330
1B
100
AcDbEntity
  8
0
  6
Continuous
 62
     7
370
    25
100
AcDbLine
 10
-1.7368589411
 20
1.7940734184
 30
0.0
 11
-1.9455203584
 21
1.7940734184
 31
0.0
  0
LINE
  5
124
330
1B
100
AcDbEntity
  8
0
  6
Continuous
 62
     7
370
    25
100
AcDbLine
 10
-1.7368589411
 20
2.0499789302
 30
0.0
 11
-1.9455203584
 21
2.0499789302
 31
0.0
  0
LINE
  5
125
330
1B
100
AcDbEntity
  8
0
  6
Continuous
 62
     7
370
    25
100
AcDbLine
 10
-1.7368589411
 20
2.3058844421
 30
0.0
 11
-1.7368589411
 21
1.7940734184
 31
0.0
  0
LINE
  5
126
330
1B
100
AcDbEntity
  8
0
  6
Continuous
 62
     7
370
    25
100
AcDbLine
 10
-1.7368589411
 20
2.3058844421
 30
0.0
 11
-1.9455203584
 21
2.3058844421
 31
0.0
  0
LINE
  5
127
330
1B
100
AcDbEntity
  8
0
  6
Continuous
 62
     8
370
    25
100
AcDbLine
 10
-3.0551817758
 20
2.7130497964
 30
0.0
 11
-3.1891109096
 21
2.7130497964
 31
0.0
  0
VIEWPORT
  5
1F4
330
1B
100
AcDbEntity
  8
0
100
AcDbViewport
 10
0.0
 20
0.0
 30
0.0
 40
8.4
 41
6.4
 68
     1
 69
     1
 12
-1.579183857
 22
2.5214356232
 13
0.0
 23
0.0
 14
0.5
 24
0.5
 15
0.5
 25
0.5
 16
0.0
 26
0.0
 36
1.0
 17
0.0
 27
0.0
 37
0.0
 42
50.0
 43
0.0
 44
0.0
 45
3.7816872891
 50
0.0
 51
0.0
 72
   100
 90
   557152
  1

281
     0
 71
     1
 74
     0
110
0.0
120
0.0
130
0.0
111
1.0
121
0.0
131
0.0
112
0.0
122
1.0
132
0.0
 79
     0
146
0.0
  0
ENDBLK
  5
1D
330
1B
100
AcDbEntity
  8
0
100
AcDbBlockEnd
  0
ENDSEC
  0
SECTION
  2
ENTITIES
  0
CIRCLE
  5
77
330
1F
100
AcDbEntity
  8
0
  6
Continuous
 62
     7
370
    25
100
AcDbCircle
 10
-0.079183857
 20
2.0499789302
 30
0.0
 40
0.4330708661417338
  0
CIRCLE
  5
84
330
1F
100
AcDbEntity
  8
0
  6
Continuous
 62
     7
370
    25
100
AcDbCircle
 10
-0.829183857
 20
2.2330497964
 30
0.0
 40
0.1562499999999999
  0
CIRCLE
  5
85
330
1F
100
AcDbEntity
  8
0
  6
Continuous
 62
     7
370
    25
100
AcDbCircle
 10
-2.329183857
 20
2.2330497964
 30
0.0
 40
0.1562499999999996
  0
CIRCLE
  5
98
330
1F
100
AcDbEntity
  8
0
  6
Continuous
 62
     7
370
    25
100
AcDbCircle
 10
-3.079183857
 20
3.1267505838
 30
0.0
 40
0.433070866141732
  0
CIRCLE
  5
99
330
1F
100
AcDbEntity
  8
0
  6
Continuous
 62
     7
370
    25
100
AcDbCircle
 10
-3.079183857
 20
2.0499789302
 30
0.0
 40
0.4330708661417332
  0
CIRCLE
  5
9A
330
1F
100
AcDbEntity
  8
0
  6
Continuous
 62
     7
370
    25
100
AcDbCircle
 10
-0.079183857
 20
3.1267505838
 30
0.0
 40
0.4330708661417337
  0
LINE
  5
AB
330
1F
100
AcDbEntity
  8
0
  6
Continuous
 62
     7
370
    25
100
AcDbLine
 10
-0.0122547231
 20
2.6988827699
 30
0.0
 11
-0.0122547231
 21
2.4778467441
 31
0.0
  0
LINE
  5
AC
330
1F
100
AcDbEntity
  8
0
  6
Continuous
 62
     7
370
    25
100
AcDbLine
 10
0.8538870092
 20
2.4630497964
 30
0.0
 11
0.8538870092
 21
2.7386403476
 31
0.0
  0
LINE
  5
AD
330
1F
100
AcDbEntity
  8
0
  6
Continuous
 62
     7
370
    25
100
AcDbLine
 10
-4.0122547231
 20
2.7386403476
 30
0.0
 11
-4.0122547231
 21
2.4630497964
 31
0.0
  0
LINE
  5
AE
330
1F
100
AcDbEntity
  8
0
  6
Continuous
 62
     7
370
    25
100
AcDbLine
 10
-3.1461129908
 20
2.4778467441
 30
0.0
 11
-3.1461129908
 21
2.6988827699
 31
0.0
  0
LINE
  5
AF
330
1F
100
AcDbEntity
  8
0
  6
Continuous
 62
     7
370
    25
100
AcDbLine
 10
-0.2269309731
 20
2.870845072
 30
0.0
 11
0.0685632592
 21
2.870845072
 31
0.0
  0
LINE
  5
B0
330
1F
100
AcDbEntity
  8
0
  6
Continuous
 62
     7
370
    25
100
AcDbLine
 10
-0.3746780892
 20
3.1267505838
 30
0.0
 11
-0.2269309731
 21
2.870845072
 31
0.0
  0
LINE
  5
B1
330
1F
100
AcDbEntity
  8
0
  6
Continuous
 62
     7
370
    25
100
AcDbLine
 10
-0.2269309731
 20
3.3826560956
 30
0.0
 11
-0.3746780892
 21
3.1267505838
 31
0.0
  0
LINE
  5
B2
330
1F
100
AcDbEntity
  8
0
  6
Continuous
 62
     7
370
    25
100
AcDbLine
 10
0.0685632592
 20
3.3826560956
 30
0.0
 11
-0.2269309731
 21
3.3826560956
 31
0.0
  0
LINE
  5
B3
330
1F
100
AcDbEntity
  8
0
  6
Continuous
 62
     7
370
    25
100
AcDbLine
 10
0.2163103753
 20
3.1267505838
 30
0.0
 11
0.0685632592
 21
3.3826560956
 31
0.0
  0
LINE
  5
B4
330
1F
100
AcDbEntity
  8
0
  6
Continuous
 62
     7
370
    25
100
AcDbLine
 10
0.0685632592
 20
2.870845072
 30
0.0
 11
0.2163103753
 21
3.1267505838
 31
0.0
  0
LINE
  5
B5
330
1F
100
AcDbEntity
  8
0
  6
Continuous
 62
     7
370
    25
100
AcDbLine
 10
-2.9314367408
 20
2.870845072
 30
0.0
 11
-2.7836896247
 21
3.1267505838
 31
0.0
  0
LINE
  5
B6
330
1F
100
AcDbEntity
  8
0
  6
Continuous
 62
     7
370
    25
100
AcDbLine
 10
-3.2269309731
 20
2.870845072
 30
0.0
 11
-2.9314367408
 21
2.870845072
 31
0.0
  0
LINE
  5
B7
330
1F
100
AcDbEntity
  8
0
  6
Continuous
 62
     7
370
    25
100
AcDbLine
 10
-3.3746780892
 20
3.1267505838
 30
0.0
 11
-3.2269309731
 21
2.870845072
 31
0.0
  0
LINE
  5
B8
330
1F
100
AcDbEntity
  8
0
  6
Continuous
 62
     7
370
    25
100
AcDbLine
 10
-3.2269309731
 20
3.3826560956
 30
0.0
 11
-3.3746780892
 21
3.1267505838
 31
0.0
  0
LINE
  5
B9
330
1F
100
AcDbEntity
  8
0
  6
Continuous
 62
     7
370
    25
100
AcDbLine
 10
-2.9314367408
 20
3.3826560956
 30
0.0
 11
-3.2269309731
 21
3.3826560956
 31
0.0
  0
LINE
  5
BA
330
1F
100
AcDbEntity
  8
0
  6
Continuous
 62
     7
370
    25
100
AcDbLine
 10
-2.7836896247
 20
3.1267505838
 30
0.0
 11
-2.9314367408
 21
3.3826560956
 31
0.0
  0
LINE
  5
BB
330
1F
100
AcDbEntity
  8
0
  6
Continuous
 62
     7
370
    25
100
AcDbLine
 10
-0.204183857
 20
2.5880497964
 30
0.0
 11
-0.204183857
 21
2.6280497964
 31
0.0
  0
LINE
  5
BC
330
1F
100
AcDbEntity
  8
0
  6
Continuous
 62
     7
370
    25
100
AcDbLine
 10
0.8538870092
 20
2.4630497964
 30
0.0
 11
0.050903939
 21
2.4630497964
 31
0.0
  0
LINE
  5
BD
330
1F
100
AcDbEntity
  8
0
  6
Continuous
 62
     7
370
    25
100
AcDbLine
 10
0.670816143
 20
2.4630497964
 30
0.0
 11
0.670816143
 21
1.4830497964
 31
0.0
  0
LINE
  5
BE
330
1F
100
AcDbEntity
  8
0
  6
Continuous
 62
     7
370
    25
100
AcDbLine
 10
0.670816143
 20
1.4830497964
 30
0.0
 11
-3.829183857
 21
1.4830497964
 31
0.0
  0
LINE
  5
BF
330
1F
100
AcDbEntity
  8
0
  6
Continuous
 62
     7
370
    25
100
AcDbLine
 10
-3.829183857
 20
1.4830497964
 30
0.0
 11
-3.829183857
 21
2.4630497964
 31
0.0
  0
LINE
  5
C0
330
1F
100
AcDbEntity
  8
0
  6
Continuous
 62
     7
370
    25
100
AcDbLine
 10
-3.2092716529
 20
2.4630497964
 30
0.0
 11
-4.0122547231
 21
2.4630497964
 31
0.0
  0
LINE
  5
C1
330
1F
100
AcDbEntity
  8
0
  6
Continuous
 62
     7
370
    25
100
AcDbLine
 10
-2.954183857
 20
2.6280497964
 30
0.0
 11
-2.954183857
 21
2.5880497964
 31
0.0
  0
LINE
  5
C2
330
1F
100
AcDbEntity
  8
0
  6
Continuous
 62
     7
370
    25
100
AcDbLine
 10
-3.829183857
 20
2.7530497964
 30
0.0
 11
-3.2980401948
 21
2.7530497964
 31
0.0
  0
LINE
  5
C3
330
1F
100
AcDbEntity
  8
0
  6
Continuous
 62
     7
370
    25
100
AcDbLine
 10
-3.829183857
 20
2.7530497964
 30
0.0
 11
-3.829183857
 21
3.4830497964
 31
0.0
  0
LINE
  5
C4
330
1F
100
AcDbEntity
  8
0
  6
Continuous
 62
     7
370
    25
100
AcDbLine
 10
-3.829183857
 20
3.4830497964
 30
0.0
 11
-3.3253570606
 21
3.4830497964
 31
0.0
  0
LINE
  5
C5
330
1F
100
AcDbEntity
  8
0
  6
Continuous
 62
     7
370
    25
100
AcDbLine
 10
-2.8330106533
 20
3.4830497964
 30
0.0
 11
-0.3253570606
 21
3.4830497964
 31
0.0
  0
LINE
  5
C6
330
1F
100
AcDbEntity
  8
0
  6
Continuous
 62
     7
370
    25
100
AcDbLine
 10
0.1669893467
 20
3.4830497964
 30
0.0
 11
0.670816143
 21
3.4830497964
 31
0.0
  0
LINE
  5
C7
330
1F
100
AcDbEntity
  8
0
  6
Continuous
 62
     7
370
    25
100
AcDbLine
 10
0.670816143
 20
3.4830497964
 30
0.0
 11
0.670816143
 21
2.7530497964
 31
0.0
  0
LINE
  5
C8
330
1F
100
AcDbEntity
  8
0
  6
Continuous
 62
     7
370
    25
100
AcDbLine
 10
0.1396724809
 20
2.7530497964
 30
0.0
 11
0.670816143
 21
2.7530497964
 31
0.0
  0
LINE
  5
C9
330
1F
100
AcDbEntity
  8
0
  6
Continuous
 62
     7
370
    25
100
AcDbLine
 10
0.8538870092
 20
2.7386403476
 30
0.0
 11
0.1129640539
 21
2.7386403476
 31
0.0
  0
LINE
  5
CA
330
1F
100
AcDbEntity
  8
0
  6
Continuous
 62
     7
370
    25
100
AcDbLine
 10
-3.2713317678
 20
2.7386403476
 30
0.0
 11
-4.0122547231
 21
2.7386403476
 31
0.0
  0
LINE
  5
CB
330
1F
100
AcDbEntity
  8
0
  6
Continuous
 62
     7
370
    25
100
AcDbLine
 10
0.2163103753
 20
2.0499789302
 30
0.0
 11
0.0685632592
 21
2.3058844421
 31
0.0
  0
LINE
  5
CC
330
1F
100
AcDbEntity
  8
0
  6
Continuous
 62
     7
370
    25
100
AcDbLine
 10
-0.3746780892
 20
2.0499789302
 30
0.0
 11
-0.2269309731
 21
1.7940734184
 31
0.0
  0
LINE
  5
CD
330
1F
100
AcDbEntity
  8
0
  6
Continuous
 62
     7
370
    25
100
AcDbLine
 10
0.0685632592
 20
2.3058844421
 30
0.0
 11
-0.2269309731
 21
2.3058844421
 31
0.0
  0
LINE
  5
CE
330
1F
100
AcDbEntity
  8
0
  6
Continuous
 62
     7
370
    25
100
AcDbLine
 10
0.0685632592
 20
1.7940734184
 30
0.0
 11
0.2163103753
 21
2.0499789302
 31
0.0
  0
LINE
  5
CF
330
1F
100
AcDbEntity
  8
0
  6
Continuous
 62
     7
370
    25
100
AcDbLine
 10
-0.2269309731
 20
1.7940734184
 30
0.0
 11
0.0685632592
 21
1.7940734184
 31
0.0
  0
LINE
  5
D0
330
1F
100
AcDbEntity
  8
0
  6
Continuous
 62
     7
370
    25
100
AcDbLine
 10
-0.2269309731
 20
2.3058844421
 30
0.0
 11
-0.3746780892
 21
2.0499789302
 31
0.0
  0
LINE
  5
D1
330
1F
100
AcDbEntity
  8
0
  6
Continuous
 62
     7
370
    25
100
AcDbLine
 10
-3.2269309731
 20
2.3058844421
 30
0.0
 11
-3.3746780892
 21
2.0499789302
 31
0.0
  0
LINE
  5
D2
330
1F
100
AcDbEntity
  8
0
  6
Continuous
 62
     7
370
    25
100
AcDbLine
 10
-2.9314367408
 20
2.3058844421
 30
0.0
 11
-3.2269309731
 21
2.3058844421
 31
0.0
  0
LINE
  5
D3
330
1F
100
AcDbEntity
  8
0
  6
Continuous
 62
     7
370
    25
100
AcDbLine
 10
-3.3746780892
 20
2.0499789302
 30
0.0
 11
-3.2269309731
 21
1.7940734184
 31
0.0
  0
LINE
  5
D4
330
1F
100
AcDbEntity
  8
0
  6
Continuous
 62
     7
370
    25
100
AcDbLine
 10
-2.9314367408
 20
1.7940734184
 30
0.0
 11
-2.7836896247
 21
2.0499789302
 31
0.0
  0
LINE
  5
D5
330
1F
100
AcDbEntity
  8
0
  6
Continuous
 62
     7
370
    25
100
AcDbLine
 10
-3.2269309731
 20
1.7940734184
 30
0.0
 11
-2.9314367408
 21
1.7940734184
 31
0.0
  0
LINE
  5
D6
330
1F
100
AcDbEntity
  8
0
  6
Continuous
 62
     7
370
    25
100
AcDbLine
 10
-2.7836896247
 20
2.0499789302
 30
0.0
 11
-2.9314367408
 21
2.3058844421
 31
0.0
  0
ARC
  5
D7
330
1F
100
AcDbEntity
  8
0
  6
Continuous
 62
     7
370
    25
100
AcDbCircle
 10
-0.079183857
 20
2.6280497964
 30
0.0
 40
0.1250000000000012
100
AcDbArc
 50
141.9886941998
 51
180.0
  0
ARC
  5
D8
330
1F
100
AcDbEntity
  8
0
  6
Continuous
 62
     7
370
    25
100
AcDbCircle
 10
-0.079183857
 20
2.5880497964
 30
0.0
 40
0.1249999999999996
100
AcDbArc
 50
180.0
 51
240.949993057
  0
ARC
  5
D9
330
1F
100
AcDbEntity
  8
0
  6
Continuous
 62
     7
370
    25
100
AcDbCircle
 10
-3.079183857
 20
2.5880497964
 30
0.0
 40
0.1249999999999667
100
AcDbArc
 50
299.050006943
 51
0.0
  0
ARC
  5
DA
330
1F
100
AcDbEntity
  8
0
  6
Continuous
 62
     7
370
    25
100
AcDbCircle
 10
-3.079183857
 20
2.6280497964
 30
0.0
 40
0.1250000000000004
100
AcDbArc
 50
0.0
 51
38.0113058002
  0
CIRCLE
  5
146
330
23
100
AcDbEntity
 67
     1
  8
0
  6
Continuous
 62
     7
370
    25
100
AcDbCircle
 10
3.079183857
 20
-2.5141109096
 30
0.0
 40
0.1004999999999994
  0
CIRCLE
  5
147
330
23
100
AcDbEntity
 67
     1
  8
0
  6
Continuous
 62
     7
370
    25
100
AcDbCircle
 10
0.079183857
 20
-2.5141109096
 30
0.0
 40
0.1004999999999998
  0
CIRCLE
  5
148
330
23
100
AcDbEntity
 67
     1
  8
0
  6
Continuous
 62
     7
370
    25
100
AcDbCircle
 10
2.329183857
 20
-2.7516109096
 30
0.0
 40
0.1562500000000009
  0
CIRCLE
  5
149
330
23
100
AcDbEntity
 67
     1
  8
0
  6
Continuous
 62
     7
370
    25
100
AcDbCircle
 10
0.829183857
 20
-2.7516109096
 30
0.0
 40
0.1562499999999996
  0
CIRCLE
  5
14A
330
23
100
AcDbEntity
 67
     1
  8
0
  6
Continuous
 62
     7
370
    25
100
AcDbCircle
 10
-0.420816143
 20
-2.6221109096
 30
0.0
 40
0.1875
  0
CIRCLE
  5
14B
330
23
100
AcDbEntity
 67
     1
  8
0
  6
Continuous
 62
     7
370
    25
100
AcDbCircle
 10
3.579183857
 20
-2.6221109096
 30
0.0
 40
0.1875
  0
CIRCLE
  5
158
330
23
100
AcDbEntity
 67
     1
  8
0
  6
Continuous
 62
     7
370
    25
100
AcDbCircle
 10
-0.420816143
 20
-2.6221109096
 30
0.0
 40
0.1580000000000004
  0
CIRCLE
  5
159
330
23
100
AcDbEntity
 67
     1
  8
0
  6
Continuous
 62
     7
370
    25
100
AcDbCircle
 10
3.579183857
 20
-2.6221109096
 30
0.0
 40
0.1580000000000004
  0
CIRCLE
  5
15E
330
23
100
AcDbEntity
 67
     1
  8
0
  6
Continuous
 62
     7
370
    25
100
AcDbCircle
 10
3.579183857
 20
-2.6221109096
 30
0.0
 40
0.1284999999999998
  0
CIRCLE
  5
15F
330
23
100
AcDbEntity
 67
     1
  8
0
  6
Continuous
 62
     7
370
    25
100
AcDbCircle
 10
-0.420816143
 20
-2.6221109096
 30
0.0
 40
0.1285000000000003
  0
CIRCLE
  5
166
330
23
100
AcDbEntity
 67
     1
  8
0
  6
Continuous
 62
     7
370
    25
100
AcDbCircle
 10
-0.420816143
 20
-2.6221109096
 30
0.0
 40
0.15748031496063
  0
LWPOLYLINE
  5
16B
330
23
100
AcDbEntity
 67
     1
  8
0
  6
Continuous
 62
     7
370
    25
100
AcDbPolyline
 90
        3
 70
   128
 43
0.0
 10
3.340183857
 20
-2.9832609824
 10
3.3396388689
 20
-2.9828997313
 10
3.329183857
 20
-2.9757355342
  0
CIRCLE
  5
16E
330
23
100
AcDbEntity
 67
     1
  8
0
  6
Continuous
 62
     7
370
    25
100
AcDbCircle
 10
3.579183857
 20
-2.6221109096
 30
0.0
 40
0.1574803149606305
  0
SPLINE
  5
170
330
23
100
AcDbEntity
 67
     1
  8
0
  6
Continuous
 62
     7
370
    25
100
AcDbSpline
210
0.0
220
0.0
230
1.0
 70
    24
 71
     3
 72
    12
 73
     8
 74
     0
 42
0.000000001
 43
0.00000001
 40
0.0
 40
0.0
 40
0.0
 40
0.0
 40
0.2499999999999936
 40
0.2499999999999936
 40
0.4999999999999872
 40
0.4999999999999872
 40
1.0
 40
1.0
 40
1.0
 40
1.0
 10
3.056034545047935
 20
-2.582466177832274
 30
0.0
 10
3.061564082678366
 20
-2.581362197737793
 30
0.0
 10
3.067218363429757
 20
-2.580233312500845
 30
0.0
 10
3.07893148518599
 20
-2.577894770993877
 30
0.0
 10
3.085111995270142
 20
-2.5766608233182
 30
0.0
 10
3.103646680716424
 20
-2.572960346866509
 30
0.0
 10
3.115682306831909
 20
-2.570557416903071
 30
0.0
 10
3.126806599749663
 20
-2.56833643591566
 30
0.0
  0
SPLINE
  5
171
330
23
100
AcDbEntity
 67
     1
  8
0
  6
Continuous
 62
     7
370
    25
100
AcDbSpline
210
0.0
220
0.0
230
1.0
 70
    24
 71
     3
 72
    12
 73
     8
 74
     0
 42
0.000000001
 43
0.00000001
 40
0.0
 40
0.0
 40
0.0
 40
0.0
 40
0.25
 40
0.25
 40
0.5
 40
0.5
 40
1.0
 40
1.0
 40
1.0
 40
1.0
 10
3.00841180224837
 20
-2.52824065154087
 30
0.0
 10
3.012132645870678
 20
-2.532477381552765
 30
0.0
 10
3.015937429539527
 20
-2.536809689705124
 30
0.0
 10
3.023819226770484
 20
-2.545784279950158
 30
0.0
 10
3.027978111846636
 20
-2.550519784853541
 30
0.0
 10
3.04045016118305
 20
-2.564721055075329
 30
0.0
 10
3.048548972632643
 20
-2.573942748060074
 30
0.0
 10
3.056034545047941
 20
-2.582466177832281
 30
0.0
  0
SPLINE
  5
174
330
23
100
AcDbEntity
 67
     1
  8
0
  6
Continuous
 62
     7
370
    25
100
AcDbSpline
210
0.0
220
0.0
230
1.0
 70
    24
 71
     3
 72
    12
 73
     8
 74
     0
 42
0.000000001
 43
0.00000001
 40
0.0
 40
0.0
 40
0.0
 40
0.0
 40
0.2500000000000036
 40
0.2500000000000036
 40
0.5000000000000072
 40
0.5000000000000072
 40
1.0
 40
1.0
 40
1.0
 40
1.0
 10
3.149955911651809
 20
-2.499981167707643
 30
0.0
 10
3.146235068029501
 20
-2.495744437695748
 30
0.0
 10
3.142430284360653
 20
-2.491412129543389
 30
0.0
 10
3.134548487129698
 20
-2.482437539298356
 30
0.0
 10
3.130389602053544
 20
-2.477702034394973
 30
0.0
 10
3.117917552717131
 20
-2.463500764173184
 30
0.0
 10
3.109818741267538
 20
-2.45427907118844
 30
0.0
 10
3.10233316885224
 20
-2.445755641416233
 30
0.0
  0
SPLINE
  5
176
330
23
100
AcDbEntity
 67
     1
  8
0
  6
Continuous
 62
     7
370
    25
100
AcDbSpline
210
0.0
220
0.0
230
1.0
 70
    24
 71
     3
 72
    12
 73
     8
 74
     0
 42
0.000000001
 43
0.00000001
 40
0.0
 40
0.0
 40
0.0
 40
0.0
 40
0.2500000000000053
 40
0.2500000000000053
 40
0.5000000000000107
 40
0.5000000000000107
 40
1.0
 40
1.0
 40
1.0
 40
1.0
 10
3.102333168852245
 20
-2.445755641416238
 30
0.0
 10
3.096803631221813
 20
-2.446859621510719
 30
0.0
 10
3.091149350470423
 20
-2.447988506747666
 30
0.0
 10
3.07943622871419
 20
-2.450327048254634
 30
0.0
 10
3.07325571863004
 20
-2.451560995930313
 30
0.0
 10
3.054721033183756
 20
-2.455261472382005
 30
0.0
 10
3.042685407068271
 20
-2.45766440234544
 30
0.0
 10
3.031561114150519
 20
-2.459885383332853
 30
0.0
  0
SPLINE
  5
178
330
23
100
AcDbEntity
 67
     1
  8
0
  6
Continuous
 62
     7
370
    25
100
AcDbSpline
210
0.0
220
0.0
230
1.0
 70
    24
 71
     3
 72
    14
 73
    10
 74
     0
 42
0.000000001
 43
0.00000001
 40
0.0
 40
0.0
 40
0.0
 40
0.0
 40
0.25
 40
0.25
 40
0.5
 40
0.5
 40
0.75
 40
0.75
 40
1.0
 40
1.0
 40
1.0
 40
1.0
 10
3.008411802248369
 20
-2.528240651540871
 30
0.0
 10
3.010205150524111
 20
-2.522945254299823
 30
0.0
 10
3.012093425243376
 20
-2.517369558338267
 30
0.0
 10
3.015962511206962
 20
-2.50594492464381
 30
0.0
 10
3.017949468172061
 20
-2.500077839831906
 30
0.0
 10
3.022025972157326
 20
-2.488040742382033
 30
0.0
 10
3.024007996964108
 20
-2.482188221242953
 30
0.0
 10
3.027886863343745
 20
-2.470734707944422
 30
0.0
 10
3.029770432125561
 20
-2.465172907670898
 30
0.0
 10
3.031561114150525
 20
-2.459885383332851
 30
0.0
  0
SPLINE
  5
17A
330
23
100
AcDbEntity
 67
     1
  8
0
  6
Continuous
 62
     7
370
    25
100
AcDbSpline
210
0.0
220
0.0
230
1.0
 70
    24
 71
     3
 72
    14
 73
    10
 74
     0
 42
0.000000001
 43
0.00000001
 40
0.0
 40
0.0
 40
0.0
 40
0.0
 40
0.25
 40
0.25
 40
0.5
 40
0.5
 40
0.75
 40
0.75
 40
1.0
 40
1.0
 40
1.0
 40
1.0
 10
3.126806599749654
 20
-2.568336435915661
 30
0.0
 10
3.128599948025399
 20
-2.563041038674611
 30
0.0
 10
3.130488222744664
 20
-2.557465342713051
 30
0.0
 10
3.134357308708248
 20
-2.546040709018597
 30
0.0
 10
3.136344265673422
 20
-2.540173624206478
 30
0.0
 10
3.140420769658617
 20
-2.528136526756806
 30
0.0
 10
3.142402794465396
 20
-2.522284005617733
 30
0.0
 10
3.146281660845069
 20
-2.5108304923191
 30
0.0
 10
3.148165229626854
 20
-2.505268692045665
 30
0.0
 10
3.149955911651809
 20
-2.499981167707644
 30
0.0
  0
CIRCLE
  5
17B
330
23
100
AcDbEntity
 67
     1
  8
0
  6
Continuous
 62
     7
370
    25
100
AcDbCircle
 10
3.079183857
 20
-2.5141109096
 30
0.0
 40
0.1000000000000008
  0
SPLINE
  5
183
330
23
100
AcDbEntity
 67
     1
  8
0
  6
Continuous
 62
     7
370
    25
100
AcDbSpline
210
0.0
220
0.0
230
1.0
 70
    24
 71
     3
 72
    12
 73
     8
 74
     0
 42
0.000000001
 43
0.00000001
 40
0.0
 40
0.0
 40
0.0
 40
0.0
 40
0.25
 40
0.25
 40
0.5
 40
0.5
 40
1.0
 40
1.0
 40
1.0
 40
1.0
 10
0.0084118022483694
 20
-2.52824065154087
 30
0.0
 10
0.0121326458706777
 20
-2.532477381552766
 30
0.0
 10
0.0159374295395268
 20
-2.536809689705126
 30
0.0
 10
0.0238192267704826
 20
-2.545784279950158
 30
0.0
 10
0.0279781118466363
 20
-2.550519784853542
 30
0.0
 10
0.0404501611830495
 20
-2.564721055075331
 30
0.0
 10
0.0485489726326418
 20
-2.573942748060075
 30
0.0
 10
0.0560345450479403
 20
-2.582466177832282
 30
0.0
  0
SPLINE
  5
185
330
23
100
AcDbEntity
 67
     1
  8
0
  6
Continuous
 62
     7
370
    25
100
AcDbSpline
210
0.0
220
0.0
230
1.0
 70
    24
 71
     3
 72
    12
 73
     8
 74
     0
 42
0.000000001
 43
0.00000001
 40
0.0
 40
0.0
 40
0.0
 40
0.0
 40
0.2500000000000011
 40
0.2500000000000011
 40
0.5000000000000021
 40
0.5000000000000021
 40
1.0
 40
1.0
 40
1.0
 40
1.0
 10
0.0560345450479346
 20
-2.582466177832275
 30
0.0
 10
0.0615640826783659
 20
-2.581362197737795
 30
0.0
 10
0.067218363429756
 20
-2.580233312500846
 30
0.0
 10
0.078931485185989
 20
-2.577894770993877
 30
0.0
 10
0.0851119952701409
 20
-2.576660823318201
 30
0.0
 10
0.1036466807164243
 20
-2.572960346866509
 30
0.0
 10
0.1156823068319091
 20
-2.570557416903073
 30
0.0
 10
0.1268065997496623
 20
-2.56833643591566
 30
0.0
  0
SPLINE
  5
186
330
23
100
AcDbEntity
 67
     1
  8
0
  6
Continuous
 62
     7
370
    25
100
AcDbSpline
210
0.0
220
0.0
230
1.0
 70
    24
 71
     3
 72
    12
 73
     8
 74
     0
 42
0.000000001
 43
0.00000001
 40
0.0
 40
0.0
 40
0.0
 40
0.0
 40
0.25
 40
0.25
 40
0.5
 40
0.5
 40
1.0
 40
1.0
 40
1.0
 40
1.0
 10
0.1499559116518091
 20
-2.499981167707644
 30
0.0
 10
0.1462350680295011
 20
-2.495744437695749
 30
0.0
 10
0.1424302843606522
 20
-2.49141212954339
 30
0.0
 10
0.1345484871296964
 20
-2.482437539298355
 30
0.0
 10
0.1303896020535434
 20
-2.477702034394973
 30
0.0
 10
0.1179175527171301
 20
-2.463500764173185
 30
0.0
 10
0.1098187412675378
 20
-2.454279071188441
 30
0.0
 10
0.1023331688522396
 20
-2.445755641416234
 30
0.0
  0
SPLINE
  5
188
330
23
100
AcDbEntity
 67
     1
  8
0
  6
Continuous
 62
     7
370
    25
100
AcDbSpline
210
0.0
220
0.0
230
1.0
 70
    24
 71
     3
 72
    12
 73
     8
 74
     0
 42
0.000000001
 43
0.00000001
 40
0.0
 40
0.0
 40
0.0
 40
0.0
 40
0.2500000000000001
 40
0.2500000000000001
 40
0.5000000000000002
 40
0.5000000000000002
 40
1.0
 40
1.0
 40
1.0
 40
1.0
 10
0.1023331688522439
 20
-2.445755641416239
 30
0.0
 10
0.0968036312218129
 20
-2.44685962151072
 30
0.0
 10
0.0911493504704231
 20
-2.447988506747667
 30
0.0
 10
0.0794362287141903
 20
-2.450327048254636
 30
0.0
 10
0.0732557186300387
 20
-2.451560995930313
 30
0.0
 10
0.0547210331837559
 20
-2.455261472382005
 30
0.0
 10
0.0426854070682713
 20
-2.45766440234544
 30
0.0
 10
0.0315611141505184
 20
-2.459885383332853
 30
0.0
  0
SPLINE
  5
18A
330
23
100
AcDbEntity
 67
     1
  8
0
  6
Continuous
 62
     7
370
    25
100
AcDbSpline
210
0.0
220
0.0
230
1.0
 70
    24
 71
     3
 72
    14
 73
    10
 74
     0
 42
0.000000001
 43
0.00000001
 40
0.0
 40
0.0
 40
0.0
 40
0.0
 40
0.25
 40
0.25
 40
0.5
 40
0.5
 40
0.75
 40
0.75
 40
1.0
 40
1.0
 40
1.0
 40
1.0
 10
0.0084118022483686
 20
-2.528240651540872
 30
0.0
 10
0.0102051505241122
 20
-2.522945254299823
 30
0.0
 10
0.0120934252433754
 20
-2.517369558338268
 30
0.0
 10
0.0159625112069615
 20
-2.505944924643811
 30
0.0
 10
0.0179494681720615
 20
-2.500077839831907
 30
0.0
 10
0.022025972157325
 20
-2.488040742382035
 30
0.0
 10
0.024007996964107
 20
-2.482188221242954
 30
0.0
 10
0.0278868633437441
 20
-2.470734707944423
 30
0.0
 10
0.0297704321255602
 20
-2.465172907670899
 30
0.0
 10
0.0315611141505244
 20
-2.459885383332852
 30
0.0
  0
SPLINE
  5
18C
330
23
100
AcDbEntity
 67
     1
  8
0
  6
Continuous
 62
     7
370
    25
100
AcDbSpline
210
0.0
220
0.0
230
1.0
 70
    24
 71
     3
 72
    14
 73
    10
 74
     0
 42
0.000000001
 43
0.00000001
 40
0.0
 40
0.0
 40
0.0
 40
0.0
 40
0.25
 40
0.25
 40
0.5
 40
0.5
 40
0.75
 40
0.75
 40
1.0
 40
1.0
 40
1.0
 40
1.0
 10
0.1268065997496539
 20
-2.568336435915661
 30
0.0
 10
0.1285999480253979
 20
-2.563041038674612
 30
0.0
 10
0.1304882227446626
 20
-2.557465342713051
 30
0.0
 10
0.1343573087082481
 20
-2.546040709018597
 30
0.0
 10
0.1363442656734205
 20
-2.540173624206478
 30
0.0
 10
0.1404207696586162
 20
-2.528136526756807
 30
0.0
 10
0.1424027944653952
 20
-2.522284005617734
 30
0.0
 10
0.1462816608450676
 20
-2.510830492319101
 30
0.0
 10
0.1481652296268533
 20
-2.505268692045667
 30
0.0
 10
0.1499559116518085
 20
-2.499981167707645
 30
0.0
  0
CIRCLE
  5
18E
330
23
100
AcDbEntity
 67
     1
  8
0
  6
Continuous
 62
     7
370
    25
100
AcDbCircle
 10
0.079183857
 20
-2.5141109096
 30
0.0
 40
0.1000000000000007
  0
SPLINE
  5
195
330
23
100
AcDbEntity
 67
     1
  8
0
  6
Continuous
 62
     7
370
    25
100
AcDbSpline
210
0.0
220
0.0
230
1.0
 70
     8
 71
     3
 72
    10
 73
     6
 74
     0
 42
0.000000001
 43
0.00000001
 40
0.0
 40
0.0
 40
0.0
 40
0.0
 40
0.5
 40
0.5
 40
1.0
 40
1.0
 40
1.0
 40
1.0
 10
0.0791838569500985
 20
-2.957145421066004
 30
0.0
 10
0.0584964837680402
 20
-2.951575907458349
 30
0.0
 10
0.0377509310173402
 20
-2.947028306671037
 30
0.0
 10
-0.0039025834490621
 20
-2.940785787014629
 30
0.0
 10
-0.02481168616678
 20
-2.939110909624268
 30
0.0
 10
-0.0458161430499014
 20
-2.939110909624268
 30
0.0
  0
SPLINE
  5
196
330
23
100
AcDbEntity
 67
     1
  8
0
  6
Continuous
 62
     7
370
    25
100
AcDbSpline
210
0.0
220
0.0
230
1.0
 70
     8
 71
     3
 72
    10
 73
     6
 74
     0
 42
0.000000001
 43
0.00000001
 40
0.0
 40
0.0
 40
0.0
 40
0.0
 40
0.5
 40
0.5
 40
1.0
 40
1.0
 40
1.0
 40
1.0
 10
0.0791838569500985
 20
-2.957145421066004
 30
0.0
 10
0.0997366994402453
 20
-2.951612126194902
 30
0.0
 10
0.1206399124461978
 20
-2.947021893740997
 30
0.0
 10
0.1623755019483243
 20
-2.940772975862964
 30
0.0
 10
0.1832664959968334
 20
-2.939110909624267
 30
0.0
 10
0.204183856950099
 20
-2.939110909624267
 30
0.0
  0
SPLINE
  5
197
330
23
100
AcDbEntity
 67
     1
  8
0
  6
Continuous
 62
     7
370
    25
100
AcDbSpline
210
0.0
220
0.0
230
1.0
 70
     8
 71
     3
 72
    12
 73
     8
 74
     0
 42
0.000000001
 43
0.00000001
 40
0.0
 40
0.0
 40
0.0
 40
0.0
 40
0.4999999999999976
 40
0.4999999999999976
 40
0.7499999999999988
 40
0.7499999999999988
 40
1.0
 40
1.0
 40
1.0
 40
1.0
 10
0.2041838569500992
 20
-3.126610909624267
 30
0.0
 10
0.2250900406626704
 20
-3.126610909624267
 30
0.0
 10
0.2460225767817445
 20
-3.124949759247065
 30
0.0
 10
0.277456646520094
 20
-3.120235033749327
 30
0.0
 10
0.2879495619087368
 20
-3.118294817226444
 30
0.0
 10
0.3086893375713027
 20
-3.113842050462475
 30
0.0
 10
0.3189717486101128
 20
-3.111325731114354
 30
0.0
 10
0.3291838569500989
 20
-3.108576398182529
 30
0.0
  0
SPLINE
  5
198
330
23
100
AcDbEntity
 67
     1
  8
0
  6
Continuous
 62
     7
370
    25
100
AcDbSpline
210
0.0
220
0.0
230
1.0
 70
     8
 71
     3
 72
    10
 73
     6
 74
     0
 42
0.000000001
 43
0.00000001
 40
0.0
 40
0.0
 40
0.0
 40
0.0
 40
0.5
 40
0.5
 40
1.0
 40
1.0
 40
1.0
 40
1.0
 10
0.0791838569500985
 20
-3.10857639818253
 30
0.0
 10
0.099736699432058
 20
-3.114109693051428
 30
0.0
 10
0.1206399124215505
 20
-3.118699925502017
 30
0.0
 10
0.1623755018933832
 20
-3.124948843379175
 30
0.0
 10
0.1832664959538486
 20
-3.126610909624267
 30
0.0
 10
0.2041838569500992
 20
-3.126610909624267
 30
0.0
  0
SPLINE
  5
19A
330
23
100
AcDbEntity
 67
     1
  8
0
  6
Continuous
 62
     7
370
    25
100
AcDbSpline
210
0.0
220
0.0
230
1.0
 70
     8
 71
     3
 72
    12
 73
     8
 74
     0
 42
0.000000001
 43
0.00000001
 40
0.0
 40
0.0
 40
0.0
 40
0.0
 40
0.4999999999999997
 40
0.4999999999999997
 40
0.7499999999999996
 40
0.7499999999999996
 40
1.0
 40
1.0
 40
1.0
 40
1.0
 10
0.204183856950099
 20
-2.939110909624267
 30
0.0
 10
0.2250900406290493
 20
-2.939110909624267
 30
0.0
 10
0.2460225766834985
 20
-2.940772059995538
 30
0.0
 10
0.2774566462831474
 20
-2.945486785459262
 30
0.0
 10
0.2879495617064493
 20
-2.947427001981632
 30
0.0
 10
0.3086893374746253
 20
-2.95187976876233
 30
0.0
 10
0.3189717485629988
 20
-2.954396088121494
 30
0.0
 10
0.3291838569500992
 20
-2.957145421066004
 30
0.0
  0
SPLINE
  5
19C
330
23
100
AcDbEntity
 67
     1
  8
0
  6
Continuous
 62
     7
370
    25
100
AcDbSpline
210
0.0
220
0.0
230
1.0
 70
     8
 71
     3
 72
    10
 73
     6
 74
     0
 42
0.000000001
 43
0.00000001
 40
0.0
 40
0.0
 40
0.0
 40
0.0
 40
0.5
 40
0.5
 40
1.0
 40
1.0
 40
1.0
 40
1.0
 10
-0.0458161430499008
 20
-3.126610909624267
 30
0.0
 10
-0.0249953886397452
 20
-3.126610909624267
 30
0.0
 10
-0.0040409198098497
 20
-3.124956305339642
 30
0.0
 10
0.0378693902846027
 20
-3.118676218189933
 30
0.0
 10
0.058603195532655
 20
-3.114117182544578
 30
0.0
 10
0.0791838569500985
 20
-3.10857639818253
 30
0.0
  0
SPLINE
  5
19D
330
23
100
AcDbEntity
 67
     1
  8
0
  6
Continuous
 62
     7
370
    25
100
AcDbSpline
210
0.0
220
0.0
230
1.0
 70
     8
 71
     3
 72
    10
 73
     6
 74
     0
 42
0.000000001
 43
0.00000001
 40
0.0
 40
0.0
 40
0.0
 40
0.0
 40
0.5
 40
0.5
 40
1.0
 40
1.0
 40
1.0
 40
1.0
 10
-0.1708161430499018
 20
-3.10857639818253
 30
0.0
 10
-0.1501287698678432
 20
-3.114145911790184
 30
0.0
 10
-0.1293832171171429
 20
-3.118693512577498
 30
0.0
 10
-0.0877297026507401
 20
-3.124936032233906
 30
0.0
 10
-0.0668205999330225
 20
-3.126610909624267
 30
0.0
 10
-0.0458161430499008
 20
-3.126610909624267
 30
0.0
  0
SPLINE
  5
19F
330
23
100
AcDbEntity
 67
     1
  8
0
  6
Continuous
 62
     7
370
    25
100
AcDbSpline
210
0.0
220
0.0
230
1.0
 70
     8
 71
     3
 72
    10
 73
     6
 74
     0
 42
0.000000001
 43
0.00000001
 40
0.0
 40
0.0
 40
0.0
 40
0.0
 40
0.5
 40
0.5
 40
1.0
 40
1.0
 40
1.0
 40
1.0
 10
-0.0458161430499014
 20
-2.939110909624268
 30
0.0
 10
-0.066636897460057
 20
-2.939110909624268
 30
0.0
 10
-0.0875913662899527
 20
-2.940765513908894
 30
0.0
 10
-0.1295016763844054
 20
-2.9470456010586
 30
0.0
 10
-0.1502354816324574
 20
-2.951604636703957
 30
0.0
 10
-0.1708161430499013
 20
-2.957145421066004
 30
0.0
  0
SPLINE
  5
1A1
330
23
100
AcDbEntity
 67
     1
  8
0
  6
Continuous
 62
     7
370
    25
100
AcDbSpline
210
0.0
220
0.0
230
1.0
 70
    24
 71
     3
 72
    10
 73
     6
 74
     0
 42
0.000000001
 43
0.00000001
 40
0.0
 40
0.0
 40
0.0
 40
0.0
 40
0.5
 40
0.5
 40
1.0
 40
1.0
 40
1.0
 40
1.0
 10
-0.1708161430499015
 20
-2.957145421066004
 30
0.0
 10
-0.1708161430499015
 20
-2.95157590745835
 30
0.0
 10
-0.1708161430499015
 20
-2.947028306671037
 30
0.0
 10
-0.1708161430499018
 20
-2.940785787014628
 30
0.0
 10
-0.1708161430499018
 20
-2.939110909624267
 30
0.0
 10
-0.1708161430499018
 20
-2.939110909624267
 30
0.0
  0
SPLINE
  5
1A2
330
23
100
AcDbEntity
 67
     1
  8
0
  6
Continuous
 62
     7
370
    25
100
AcDbSpline
210
0.0
220
0.0
230
1.0
 70
    24
 71
     3
 72
    10
 73
     6
 74
     0
 42
0.000000001
 43
0.00000001
 40
0.0
 40
0.0
 40
0.0
 40
0.0
 40
0.5
 40
0.5
 40
1.0
 40
1.0
 40
1.0
 40
1.0
 10
-0.1708161430499015
 20
-3.126610909624267
 30
0.0
 10
-0.1708161430499013
 20
-3.126610909624267
 30
0.0
 10
-0.1708161430499013
 20
-3.124956305339641
 30
0.0
 10
-0.1708161430499013
 20
-3.118676218189933
 30
0.0
 10
-0.1708161430499013
 20
-3.114117182544578
 30
0.0
 10
-0.1708161430499013
 20
-3.10857639818253
 30
0.0
  0
SPLINE
  5
1A4
330
23
100
AcDbEntity
 67
     1
  8
0
  6
Continuous
 62
     7
370
    25
100
AcDbSpline
210
0.0
220
0.0
230
1.0
 70
    24
 71
     3
 72
    10
 73
     6
 74
     0
 42
0.000000001
 43
0.00000001
 40
0.0
 40
0.0
 40
0.0
 40
0.0
 40
0.5
 40
0.5
 40
1.0
 40
1.0
 40
1.0
 40
1.0
 10
0.3291838569500986
 20
-2.939110909624266
 30
0.0
 10
0.3291838569500986
 20
-2.939110909624267
 30
0.0
 10
0.3291838569500989
 20
-2.940765513908892
 30
0.0
 10
0.3291838569500989
 20
-2.9470456010586
 30
0.0
 10
0.3291838569500989
 20
-2.951604636703955
 30
0.0
 10
0.3291838569500989
 20
-2.957145421066003
 30
0.0
  0
SPLINE
  5
1A5
330
23
100
AcDbEntity
 67
     1
  8
0
  6
Continuous
 62
     7
370
    25
100
AcDbSpline
210
0.0
220
0.0
230
1.0
 70
    24
 71
     3
 72
    10
 73
     6
 74
     0
 42
0.000000001
 43
0.00000001
 40
0.0
 40
0.0
 40
0.0
 40
0.0
 40
0.5
 40
0.5
 40
1.0
 40
1.0
 40
1.0
 40
1.0
 10
0.3291838569500992
 20
-3.108576398182529
 30
0.0
 10
0.3291838569500989
 20
-3.114145911790184
 30
0.0
 10
0.3291838569500992
 20
-3.118693512577497
 30
0.0
 10
0.3291838569500989
 20
-3.124936032233904
 30
0.0
 10
0.3291838569500989
 20
-3.126610909624266
 30
0.0
 10
0.3291838569500989
 20
-3.126610909624266
 30
0.0
  0
SPLINE
  5
1A7
330
23
100
AcDbEntity
 67
     1
  8
0
  6
Continuous
 62
     7
370
    25
100
AcDbSpline
210
0.0
220
0.0
230
1.0
 70
     8
 71
     3
 72
    12
 73
     8
 74
     0
 42
0.000000001
 43
0.00000001
 40
0.0
 40
0.0
 40
0.0
 40
0.0
 40
0.499999999999998
 40
0.499999999999998
 40
0.749999999999999
 40
0.749999999999999
 40
1.0
 40
1.0
 40
1.0
 40
1.0
 10
3.204183856950096
 20
-2.93911090962427
 30
0.0
 10
3.183277673237524
 20
-2.939110909624271
 30
0.0
 10
3.162345137118451
 20
-2.940772060001472
 30
0.0
 10
3.1309110673801
 20
-2.945486785499209
 30
0.0
 10
3.120418151991458
 20
-2.947427002022093
 30
0.0
 10
3.099678376328892
 20
-2.951879768786062
 30
0.0
 10
3.089395965290084
 20
-2.954396088134183
 30
0.0
 10
3.079183856950096
 20
-2.957145421066008
 30
0.0
  0
SPLINE
  5
1A8
330
23
100
AcDbEntity
 67
     1
  8
0
  6
Continuous
 62
     7
370
    25
100
AcDbSpline
210
0.0
220
0.0
230
1.0
 70
     8
 71
     3
 72
    10
 73
     6
 74
     0
 42
0.000000001
 43
0.00000001
 40
0.0
 40
0.0
 40
0.0
 40
0.0
 40
0.5
 40
0.5
 40
1.0
 40
1.0
 40
1.0
 40
1.0
 10
3.329183856950096
 20
-2.957145421066007
 30
0.0
 10
3.308631014468137
 20
-2.951612126197109
 30
0.0
 10
3.287727801478646
 20
-2.947021893746522
 30
0.0
 10
3.245992212006812
 20
-2.940772975869363
 30
0.0
 10
3.225101217946347
 20
-2.93911090962427
 30
0.0
 10
3.204183856950096
 20
-2.93911090962427
 30
0.0
  0
SPLINE
  5
1AA
330
23
100
AcDbEntity
 67
     1
  8
0
  6
Continuous
 62
     7
370
    25
100
AcDbSpline
210
0.0
220
0.0
230
1.0
 70
     8
 71
     3
 72
    10
 73
     6
 74
     0
 42
0.000000001
 43
0.00000001
 40
0.0
 40
0.0
 40
0.0
 40
0.0
 40
0.5
 40
0.5
 40
1.0
 40
1.0
 40
1.0
 40
1.0
 10
3.329183856950096
 20
-3.108576398182533
 30
0.0
 10
3.308631014459949
 20
-3.114109693053635
 30
0.0
 10
3.287727801453997
 20
-3.118699925507541
 30
0.0
 10
3.245992211951868
 20
-3.124948843385574
 30
0.0
 10
3.225101217903361
 20
-3.12661090962427
 30
0.0
 10
3.204183856950095
 20
-3.12661090962427
 30
0.0
  0
SPLINE
  5
1AB
330
23
100
AcDbEntity
 67
     1
  8
0
  6
Continuous
 62
     7
370
    25
100
AcDbSpline
210
0.0
220
0.0
230
1.0
 70
     8
 71
     3
 72
    12
 73
     8
 74
     0
 42
0.000000001
 43
0.00000001
 40
0.0
 40
0.0
 40
0.0
 40
0.0
 40
0.4999999999999951
 40
0.4999999999999951
 40
0.7499999999999976
 40
0.7499999999999976
 40
1.0
 40
1.0
 40
1.0
 40
1.0
 10
3.204183856950095
 20
-3.12661090962427
 30
0.0
 10
3.183277673271145
 20
-3.126610909624271
 30
0.0
 10
3.162345137216695
 20
-3.124949759252998
 30
0.0
 10
3.130911067617047
 20
-3.120235033789274
 30
0.0
 10
3.120418152193746
 20
-3.118294817266905
 30
0.0
 10
3.099678376425571
 20
-3.113842050486208
 30
0.0
 10
3.089395965337197
 20
-3.111325731127044
 30
0.0
 10
3.079183856950096
 20
-3.108576398182533
 30
0.0
  0
SPLINE
  5
1AD
330
23
100
AcDbEntity
 67
     1
  8
0
  6
Continuous
 62
     7
370
    25
100
AcDbSpline
210
0.0
220
0.0
230
1.0
 70
     8
 71
     3
 72
    10
 73
     6
 74
     0
 42
0.000000001
 43
0.00000001
 40
0.0
 40
0.0
 40
0.0
 40
0.0
 40
0.5
 40
0.5
 40
1.0
 40
1.0
 40
1.0
 40
1.0
 10
2.954183856950096
 20
-2.93911090962427
 30
0.0
 10
2.93336310253994
 20
-2.93911090962427
 30
0.0
 10
2.912408633710045
 20
-2.940765513908896
 30
0.0
 10
2.870498323615591
 20
-2.947045601058603
 30
0.0
 10
2.849764518367539
 20
-2.951604636703959
 30
0.0
 10
2.829183856950095
 20
-2.957145421066007
 30
0.0
  0
SPLINE
  5
1AE
330
23
100
AcDbEntity
 67
     1
  8
0
  6
Continuous
 62
     7
370
    25
100
AcDbSpline
210
0.0
220
0.0
230
1.0
 70
     8
 71
     3
 72
    10
 73
     6
 74
     0
 42
0.000000001
 43
0.00000001
 40
0.0
 40
0.0
 40
0.0
 40
0.0
 40
0.5
 40
0.5
 40
1.0
 40
1.0
 40
1.0
 40
1.0
 10
3.079183856950096
 20
-2.957145421066008
 30
0.0
 10
3.058496483768038
 20
-2.951575907458353
 30
0.0
 10
3.037750931017338
 20
-2.947028306671039
 30
0.0
 10
2.996097416550934
 20
-2.940785787014631
 30
0.0
 10
2.975188313833217
 20
-2.93911090962427
 30
0.0
 10
2.954183856950096
 20
-2.93911090962427
 30
0.0
  0
SPLINE
  5
1AF
330
23
100
AcDbEntity
 67
     1
  8
0
  6
Continuous
 62
     7
370
    25
100
AcDbSpline
210
0.0
220
0.0
230
1.0
 70
     8
 71
     3
 72
    10
 73
     6
 74
     0
 42
0.000000001
 43
0.00000001
 40
0.0
 40
0.0
 40
0.0
 40
0.0
 40
0.5
 40
0.5
 40
1.0
 40
1.0
 40
1.0
 40
1.0
 10
2.954183856950096
 20
-3.12661090962427
 30
0.0
 10
2.975004611360252
 20
-3.126610909624271
 30
0.0
 10
2.995959080190147
 20
-3.124956305339645
 30
0.0
 10
3.0378693902846
 20
-3.118676218189937
 30
0.0
 10
3.058603195532653
 20
-3.114117182544582
 30
0.0
 10
3.079183856950095
 20
-3.108576398182534
 30
0.0
  0
SPLINE
  5
1B0
330
23
100
AcDbEntity
 67
     1
  8
0
  6
Continuous
 62
     7
370
    25
100
AcDbSpline
210
0.0
220
0.0
230
1.0
 70
     8
 71
     3
 72
    10
 73
     6
 74
     0
 42
0.000000001
 43
0.00000001
 40
0.0
 40
0.0
 40
0.0
 40
0.0
 40
0.5
 40
0.5
 40
1.0
 40
1.0
 40
1.0
 40
1.0
 10
2.829183856950095
 20
-3.108576398182533
 30
0.0
 10
2.849871230132154
 20
-3.114145911790189
 30
0.0
 10
2.870616782882854
 20
-3.118693512577501
 30
0.0
 10
2.912270297349256
 20
-3.124936032233908
 30
0.0
 10
2.933179400066975
 20
-3.12661090962427
 30
0.0
 10
2.954183856950096
 20
-3.12661090962427
 30
0.0
  0
SPLINE
  5
1B3
330
23
100
AcDbEntity
 67
     1
  8
0
  6
Continuous
 62
     7
370
    25
100
AcDbSpline
210
0.0
220
0.0
230
1.0
 70
    24
 71
     3
 72
    10
 73
     6
 74
     0
 42
0.000000001
 43
0.00000001
 40
0.0
 40
0.0
 40
0.0
 40
0.0
 40
0.5
 40
0.5
 40
1.0
 40
1.0
 40
1.0
 40
1.0
 10
2.829183856950096
 20
-2.957145421066007
 30
0.0
 10
2.829183856950096
 20
-2.951575907458352
 30
0.0
 10
2.829183856950096
 20
-2.947028306671039
 30
0.0
 10
2.829183856950096
 20
-2.94078578701463
 30
0.0
 10
2.829183856950096
 20
-2.93911090962427
 30
0.0
 10
2.829183856950096
 20
-2.93911090962427
 30
0.0
  0
SPLINE
  5
1B4
330
23
100
AcDbEntity
 67
     1
  8
0
  6
Continuous
 62
     7
370
    25
100
AcDbSpline
210
0.0
220
0.0
230
1.0
 70
    24
 71
     3
 72
    10
 73
     6
 74
     0
 42
0.000000001
 43
0.00000001
 40
0.0
 40
0.0
 40
0.0
 40
0.0
 40
0.5
 40
0.5
 40
1.0
 40
1.0
 40
1.0
 40
1.0
 10
3.329183856950095
 20
-2.93911090962427
 30
0.0
 10
3.329183856950095
 20
-2.93911090962427
 30
0.0
 10
3.329183856950096
 20
-2.940765513908895
 30
0.0
 10
3.329183856950095
 20
-2.947045601058604
 30
0.0
 10
3.329183856950096
 20
-2.951604636703959
 30
0.0
 10
3.329183856950096
 20
-2.957145421066007
 30
0.0
  0
SPLINE
  5
1B5
330
23
100
AcDbEntity
 67
     1
  8
0
  6
Continuous
 62
     7
370
    25
100
AcDbSpline
210
0.0
220
0.0
230
1.0
 70
    24
 71
     3
 72
    10
 73
     6
 74
     0
 42
0.000000001
 43
0.00000001
 40
0.0
 40
0.0
 40
0.0
 40
0.0
 40
0.5
 40
0.5
 40
1.0
 40
1.0
 40
1.0
 40
1.0
 10
2.829183856950096
 20
-3.126610909624269
 30
0.0
 10
2.829183856950096
 20
-3.126610909624269
 30
0.0
 10
2.829183856950096
 20
-3.124956305339644
 30
0.0
 10
2.829183856950096
 20
-3.118676218189935
 30
0.0
 10
2.829183856950096
 20
-3.114117182544581
 30
0.0
 10
2.829183856950096
 20
-3.108576398182533
 30
0.0
  0
SPLINE
  5
1B7
330
23
100
AcDbEntity
 67
     1
  8
0
  6
Continuous
 62
     7
370
    25
100
AcDbSpline
210
0.0
220
0.0
230
1.0
 70
    24
 71
     3
 72
    10
 73
     6
 74
     0
 42
0.000000001
 43
0.00000001
 40
0.0
 40
0.0
 40
0.0
 40
0.0
 40
0.5
 40
0.5
 40
1.0
 40
1.0
 40
1.0
 40
1.0
 10
3.329183856950096
 20
-3.108576398182533
 30
0.0
 10
3.329183856950096
 20
-3.114145911790188
 30
0.0
 10
3.329183856950096
 20
-3.1186935125775
 30
0.0
 10
3.329183856950095
 20
-3.124936032233907
 30
0.0
 10
3.329183856950096
 20
-3.12661090962427
 30
0.0
 10
3.329183856950095
 20
-3.126610909624269
 30
0.0
  0
LINE
  5
1BB
330
23
100
AcDbEntity
 67
     1
  8
0
  6
Continuous
 62
     7
370
    25
100
AcDbLine
 10
0.2366641719
 20
-3.1266227206
 30
0.0
 11
0.2366641719
 21
-3.1266109096
 31
0.0
  0
LINE
  5
1BC
330
23
100
AcDbEntity
 67
     1
  8
0
  6
Continuous
 62
     7
370
    25
100
AcDbLine
 10
-0.078296458
 20
-3.1266109096
 30
0.0
 11
-0.078296458
 21
-3.1266227206
 31
0.0
  0
LINE
  5
1BD
330
23
100
AcDbEntity
 67
     1
  8
0
  6
Continuous
 62
     7
370
    25
100
AcDbLine
 10
3.2366641719
 20
-3.1266227206
 30
0.0
 11
3.2366641719
 21
-3.1266109096
 31
0.0
  0
LINE
  5
1BE
330
23
100
AcDbEntity
 67
     1
  8
0
  6
Continuous
 62
     7
370
    25
100
AcDbLine
 10
2.921703542
 20
-3.1266109096
 30
0.0
 11
2.921703542
 21
-3.1266227206
 31
0.0
  0
LINE
  5
1BF
330
23
100
AcDbEntity
 67
     1
  8
0
  6
Continuous
 62
     7
370
    25
100
AcDbLine
 10
-0.149316143
 20
-2.2211109096
 30
0.0
 11
-0.149316143
 21
-2.3141109096
 31
0.0
  0
LINE
  5
1C0
330
23
100
AcDbEntity
 67
     1
  8
0
  6
Continuous
 62
     7
370
    25
100
AcDbLine
 10
0.307683857
 20
-2.3141109096
 30
0.0
 11
0.307683857
 21
-2.2211109096
 31
0.0
  0
LINE
  5
1C1
330
23
100
AcDbEntity
 67
     1
  8
0
  6
Continuous
 62
     7
370
    25
100
AcDbLine
 10
3.5122547231
 20
-2.2211109096
 30
0.0
 11
3.5122547231
 21
-1.9455203584
 31
0.0
  0
LINE
  5
1C2
330
23
100
AcDbEntity
 67
     1
  8
0
  6
Continuous
 62
     7
370
    25
100
AcDbLine
 10
2.6461129908
 20
-1.9455203584
 30
0.0
 11
2.6461129908
 21
-2.2211109096
 31
0.0
  0
LINE
  5
1C3
330
23
100
AcDbEntity
 67
     1
  8
0
  6
Continuous
 62
     7
370
    25
100
AcDbLine
 10
0.5122547231
 20
-2.2211109096
 30
0.0
 11
0.5122547231
 21
-1.9455203584
 31
0.0
  0
LINE
  5
1C4
330
23
100
AcDbEntity
 67
     1
  8
0
  6
Continuous
 62
     7
370
    25
100
AcDbLine
 10
-0.3538870092
 20
-1.9455203584
 30
0.0
 11
-0.3538870092
 21
-2.2211109096
 31
0.0
  0
LINE
  5
1C5
330
23
100
AcDbEntity
 67
     1
  8
0
  6
Continuous
 62
     7
370
    25
100
AcDbLine
 10
2.850683857
 20
-2.2211109096
 30
0.0
 11
2.850683857
 21
-2.3141109096
 31
0.0
  0
LINE
  5
1C6
330
23
100
AcDbEntity
 67
     1
  8
0
  6
Continuous
 62
     7
370
    25
100
AcDbLine
 10
3.307683857
 20
-2.3141109096
 30
0.0
 11
3.307683857
 21
-2.2211109096
 31
0.0
  0
LINE
  5
1C7
330
23
100
AcDbEntity
 67
     1
  8
0
  6
Continuous
 62
     7
370
    25
100
AcDbLine
 10
0.2269309731
 20
-1.7368589411
 30
0.0
 11
0.2269309731
 21
-1.9455203584
 31
0.0
  0
LINE
  5
1C8
330
23
100
AcDbEntity
 67
     1
  8
0
  6
Continuous
 62
     7
370
    25
100
AcDbLine
 10
-0.0685632592
 20
-1.7368589411
 30
0.0
 11
-0.0685632592
 21
-1.9455203584
 31
0.0
  0
LINE
  5
1C9
330
23
100
AcDbEntity
 67
     1
  8
0
  6
Continuous
 62
     7
370
    25
100
AcDbLine
 10
-0.2163103753
 20
-1.7368589411
 30
0.0
 11
0.3746780892
 21
-1.7368589411
 31
0.0
  0
LINE
  5
1CA
330
23
100
AcDbEntity
 67
     1
  8
0
  6
Continuous
 62
     7
370
    25
100
AcDbLine
 10
0.3746780892
 20
-1.7368589411
 30
0.0
 11
0.3746780892
 21
-1.9455203584
 31
0.0
  0
LINE
  5
1CB
330
23
100
AcDbEntity
 67
     1
  8
0
  6
Continuous
 62
     7
370
    25
100
AcDbLine
 10
-0.2163103753
 20
-1.7368589411
 30
0.0
 11
-0.2163103753
 21
-1.9455203584
 31
0.0
  0
LINE
  5
1CC
330
23
100
AcDbEntity
 67
     1
  8
0
  6
Continuous
 62
     7
370
    25
100
AcDbLine
 10
0.2366641719
 20
-3.1266227206
 30
0.0
 11
-0.078296458
 21
-3.1266227206
 31
0.0
  0
LINE
  5
1CD
330
23
100
AcDbEntity
 67
     1
  8
0
  6
Continuous
 62
     7
370
    25
100
AcDbLine
 10
3.2269309731
 20
-1.7368589411
 30
0.0
 11
3.2269309731
 21
-1.9455203584
 31
0.0
  0
LINE
  5
1CE
330
23
100
AcDbEntity
 67
     1
  8
0
  6
Continuous
 62
     7
370
    25
100
AcDbLine
 10
2.9314367408
 20
-1.7368589411
 30
0.0
 11
2.9314367408
 21
-1.9455203584
 31
0.0
  0
LINE
  5
1CF
330
23
100
AcDbEntity
 67
     1
  8
0
  6
Continuous
 62
     7
370
    25
100
AcDbLine
 10
2.7836896247
 20
-1.7368589411
 30
0.0
 11
3.3746780892
 21
-1.7368589411
 31
0.0
  0
LINE
  5
1D0
330
23
100
AcDbEntity
 67
     1
  8
0
  6
Continuous
 62
     7
370
    25
100
AcDbLine
 10
2.7836896247
 20
-1.7368589411
 30
0.0
 11
2.7836896247
 21
-1.9455203584
 31
0.0
  0
LINE
  5
1D1
330
23
100
AcDbEntity
 67
     1
  8
0
  6
Continuous
 62
     7
370
    25
100
AcDbLine
 10
3.3746780892
 20
-1.7368589411
 30
0.0
 11
3.3746780892
 21
-1.9455203584
 31
0.0
  0
LINE
  5
1D2
330
23
100
AcDbEntity
 67
     1
  8
0
  6
Continuous
 62
     7
370
    25
100
AcDbLine
 10
3.2366641719
 20
-3.1266227206
 30
0.0
 11
2.921703542
 21
-3.1266227206
 31
0.0
  0
LINE
  5
1D3
330
23
100
AcDbEntity
 67
     1
  8
0
  6
Continuous
 62
     7
370
    25
100
AcDbLine
 10
-0.670816143
 20
-3.1891109096
 30
0.0
 11
-0.670816143
 21
-2.3141109096
 31
0.0
  0
LINE
  5
1D4
330
23
100
AcDbEntity
 67
     1
  8
0
  6
Continuous
 62
     7
370
    25
100
AcDbLine
 10
3.829183857
 20
-2.3141109096
 30
0.0
 11
-0.670816143
 21
-2.3141109096
 31
0.0
  0
LINE
  5
1D5
330
23
100
AcDbEntity
 67
     1
  8
0
  6
Continuous
 62
     7
370
    25
100
AcDbLine
 10
3.829183857
 20
-3.1891109096
 30
0.0
 11
3.829183857
 21
-2.3141109096
 31
0.0
  0
LINE
  5
1D6
330
23
100
AcDbEntity
 67
     1
  8
0
  6
Continuous
 62
     7
370
    25
100
AcDbLine
 10
2.818183857
 20
-2.9391109096
 30
0.0
 11
2.818183857
 21
-3.1891109096
 31
0.0
  0
LINE
  5
1D7
330
23
100
AcDbEntity
 67
     1
  8
0
  6
Continuous
 62
     7
370
    25
100
AcDbLine
 10
0.340183857
 20
-2.9391109096
 30
0.0
 11
0.340183857
 21
-3.1891109096
 31
0.0
  0
LINE
  5
1D8
330
23
100
AcDbEntity
 67
     1
  8
0
  6
Continuous
 62
     7
370
    25
100
AcDbLine
 10
0.340183857
 20
-2.9391109096
 30
0.0
 11
-0.181816143
 21
-2.9391109096
 31
0.0
  0
LINE
  5
1D9
330
23
100
AcDbEntity
 67
     1
  8
0
  6
Continuous
 62
     7
370
    25
100
AcDbLine
 10
-0.181816143
 20
-2.9391109096
 30
0.0
 11
-0.181816143
 21
-3.1891109096
 31
0.0
  0
LINE
  5
1DA
330
23
100
AcDbEntity
 67
     1
  8
0
  6
Continuous
 62
     7
370
    25
100
AcDbLine
 10
3.829183857
 20
-3.1891109096
 30
0.0
 11
-0.670816143
 21
-3.1891109096
 31
0.0
  0
LINE
  5
1DB
330
23
100
AcDbEntity
 67
     1
  8
0
  6
Continuous
 62
     7
370
    25
100
AcDbLine
 10
3.340183857
 20
-2.9391109096
 30
0.0
 11
3.340183857
 21
-3.1891109096
 31
0.0
  0
LINE
  5
1DC
330
23
100
AcDbEntity
 67
     1
  8
0
  6
Continuous
 62
     7
370
    25
100
AcDbLine
 10
3.340183857
 20
-2.9391109096
 30
0.0
 11
2.818183857
 21
-2.9391109096
 31
0.0
  0
LINE
  5
1DD
330
23
100
AcDbEntity
 67
     1
  8
0
  6
Continuous
 62
     7
370
    25
100
AcDbLine
 10
2.6461129908
 20
-2.2211109096
 30
0.0
 11
3.5122547231
 21
-2.2211109096
 31
0.0
  0
LINE
  5
1DE
330
23
100
AcDbEntity
 67
     1
  8
0
  6
Continuous
 62
     7
370
    25
100
AcDbLine
 10
2.6461129908
 20
-1.9455203584
 30
0.0
 11
3.5122547231
 21
-1.9455203584
 31
0.0
  0
LINE
  5
1DF
330
23
100
AcDbEntity
 67
     1
  8
0
  6
Continuous
 62
     7
370
    25
100
AcDbLine
 10
-0.3538870092
 20
-2.2211109096
 30
0.0
 11
0.5122547231
 21
-2.2211109096
 31
0.0
  0
LINE
  5
1E0
330
23
100
AcDbEntity
 67
     1
  8
0
  6
Continuous
 62
     7
370
    25
100
AcDbLine
 10
-0.3538870092
 20
-1.9455203584
 30
0.0
 11
0.5122547231
 21
-1.9455203584
 31
0.0
  0
LINE
  5
1E1
330
23
100
AcDbEntity
 67
     1
  8
0
  6
Continuous
 62
     7
370
    25
100
AcDbLine
 10
-0.170816143
 20
-2.9757355342
 30
0.0
 11
-0.181816143
 21
-2.9832609824
 31
0.0
  0
LINE
  5
1E2
330
23
100
AcDbEntity
 67
     1
  8
0
  6
Continuous
 62
     7
370
    25
100
AcDbLine
 10
0.079183857
 20
-3.1085763982
 30
0.0
 11
0.079183857
 21
-2.9571454211
 31
0.0
  0
LINE
  5
1E3
330
23
100
AcDbEntity
 67
     1
  8
0
  6
Continuous
 62
     7
370
    25
100
AcDbLine
 10
0.329183857
 20
-3.1085763982
 30
0.0
 11
0.329183857
 21
-2.9571454211
 31
0.0
  0
LINE
  5
1E4
330
23
100
AcDbEntity
 67
     1
  8
0
  6
Continuous
 62
     7
370
    25
100
AcDbLine
 10
-0.170816143
 20
-3.1085763982
 30
0.0
 11
-0.170816143
 21
-2.9571454211
 31
0.0
  0
LINE
  5
1E5
330
23
100
AcDbEntity
 67
     1
  8
0
  6
Continuous
 62
     7
370
    25
100
AcDbLine
 10
-0.170816143
 20
-3.1266109096
 30
0.0
 11
0.329183857
 21
-3.1266109096
 31
0.0
  0
LINE
  5
1E6
330
23
100
AcDbEntity
 67
     1
  8
0
  6
Continuous
 62
     7
370
    25
100
AcDbLine
 10
3.329183857
 20
-2.9571454211
 30
0.0
 11
3.329183857
 21
-3.1085763982
 31
0.0
  0
LINE
  5
1E7
330
23
100
AcDbEntity
 67
     1
  8
0
  6
Continuous
 62
     7
370
    25
100
AcDbLine
 10
3.079183857
 20
-2.9571454211
 30
0.0
 11
3.079183857
 21
-3.1085763982
 31
0.0
  0
LINE
  5
1E8
330
23
100
AcDbEntity
 67
     1
  8
0
  6
Continuous
 62
     7
370
    25
100
AcDbLine
 10
2.829183857
 20
-2.9571454211
 30
0.0
 11
2.829183857
 21
-3.1085763982
 31
0.0
  0
LINE
  5
1E9
330
23
100
AcDbEntity
 67
     1
  8
0
  6
Continuous
 62
     7
370
    25
100
AcDbLine
 10
3.329183857
 20
-3.1266109096
 30
0.0
 11
2.829183857
 21
-3.1266109096
 31
0.0
  0
LINE
  5
1EA
330
23
100
AcDbEntity
 67
     1
  8
0
  6
Continuous
 62
     8
370
    25
100
AcDbLine
 10
0.090183857
 20
-3.1266227206
 30
0.0
 11
0.090183857
 21
-3.1891109096
 31
0.0
  0
LINE
  5
1EB
330
23
100
AcDbEntity
 67
     1
  8
0
  6
Continuous
 62
     8
370
    25
100
AcDbLine
 10
3.068183857
 20
-3.1266227206
 30
0.0
 11
3.068183857
 21
-3.1891109096
 31
0.0
  0
ARC
  5
1EC
330
23
100
AcDbEntity
 67
     1
  8
0
  6
Continuous
 62
     7
370
    25
100
AcDbCircle
 10
-0.420816143
 20
-2.6221109096
 30
0.0
 40
0.4330708661417327
100
AcDbArc
 50
81.109564933
 51
234.7410514612
  0
ARC
  5
1ED
330
23
100
AcDbEntity
 67
     1
  8
0
  6
Continuous
 62
     7
370
    25
100
AcDbCircle
 10
-0.420816143
 20
-2.6221109096
 30
0.0
 40
0.4330708661416962
100
AcDbArc
 50
51.1768841974
 51
67.8113560049
  0
ARC
  5
1EE
330
23
100
AcDbEntity
 67
     1
  8
0
  6
Continuous
 62
     7
370
    25
100
AcDbCircle
 10
3.579183857
 20
-2.6221109096
 30
0.0
 40
0.4330708661417326
100
AcDbArc
 50
305.2589485388
 51
98.890435067
  0
ARC
  5
1EF
330
23
100
AcDbEntity
 67
     1
  8
0
  6
Continuous
 62
     7
370
    25
100
AcDbCircle
 10
3.579183857
 20
-2.6221109096
 30
0.0
 40
0.4330708661416407
100
AcDbArc
 50
112.1886439951
 51
128.8231158026
  0
ARC
  5
1F0
330
23
100
AcDbEntity
 67
     1
  8
0
  6
Continuous
 62
     7
370
    25
100
AcDbCircle
 10
3.079183857
 20
-2.5141109096
 30
0.0
 40
0.072168783648703
100
AcDbArc
 50
11.2907277289
 51
311.2907277289
  0
ARC
  5
1F1
330
23
100
AcDbEntity
 67
     1
  8
0
  6
Continuous
 62
     7
370
    25
100
AcDbCircle
 10
3.079183857
 20
-2.5141109096
 30
0.0
 40
0.0625000000000026
100
AcDbArc
 50
221.2907277289
 51
161.2907277289
  0
ARC
  5
1F2
330
23
100
AcDbEntity
 67
     1
  8
0
  6
Continuous
 62
     7
370
    25
100
AcDbCircle
 10
0.079183857
 20
-2.5141109096
 30
0.0
 40
0.0721687836487027
100
AcDbArc
 50
11.2907277289
 51
311.2907277289
  0
ARC
  5
1F3
330
23
100
AcDbEntity
 67
     1
  8
0
  6
Continuous
 62
     7
370
    25
100
AcDbCircle
 10
0.079183857
 20
-2.5141109096
 30
0.0
 40
0.0624999999999985
100
AcDbArc
 50
221.2907277289
 51
161.2907277289
  0
VIEWPORT
  5
1F6
330
23
100
AcDbEntity
 67
     1
  8
0
100
AcDbViewport
 10
0.0
 20
0.0
 30
0.0
 40
8.4
 41
6.4
 68
     1
 69
     1
 12
-1.579183857
 22
2.5214356232
 13
0.0
 23
0.0
 14
0.5
 24
0.5
 15
0.5
 25
0.5
 16
0.0
 26
0.0
 36
1.0
 17
0.0
 27
0.0
 37
0.0
 42
50.0
 43
0.0
 44
0.0
 45
3.7816872891
 50
0.0
 51
0.0
 72
   100
 90
   557152
  1

281
     0
 71
     1
 74
     0
110
0.0
120
0.0
130
0.0
111
1.0
121
0.0
131
0.0
112
0.0
122
1.0
132
0.0
 79
     0
146
0.0
  0
ENDSEC
  0
SECTION
  2
OBJECTS
  0
DICTIONARY
  5
C
330
0
100
AcDbDictionary
281
     1
  3
ACAD_GROUP
350
D
  3
ACAD_LAYOUT
350
1A
  3
ACAD_MLINESTYLE
350
17
  3
ACAD_PLOTSETTINGS
350
19
  3
ACAD_PLOTSTYLENAME
350
E
  3
ACAD_SCALELIST
350
47
  0
DICTIONARY
  5
D
102
{ACAD_REACTORS
330
C
102
}
330
C
100
AcDbDictionary
281
     1
  0
DICTIONARY
  5
1A
102
{ACAD_REACTORS
330
C
102
}
330
C
100
AcDbDictionary
281
     1
  3
_Right
350
1E
  3
_Top
350
26
  3
Model
350
22
  0
DICTIONARY
  5
17
102
{ACAD_REACTORS
330
C
102
}
330
C
100
AcDbDictionary
281
     1
  3
Standard
350
18
  0
DICTIONARY
  5
19
102
{ACAD_REACTORS
330
C
102
}
330
C
100
AcDbDictionary
281
     1
  0
ACDBDICTIONARYWDFLT
  5
E
102
{ACAD_REACTORS
330
C
102
}
330
C
100
AcDbDictionary
281
     1
  3
Normal
350
F
100
AcDbDictionaryWithDefault
340
F
  0
DICTIONARY
  5
47
102
{ACAD_REACTORS
330
C
102
}
330
C
100
AcDbDictionary
281
     1
  3
A0
350
48
  3
A1
350
49
  3
A2
350
4A
  3
A3
350
4B
  3
A4
350
4C
  3
A5
350
4D
  3
A6
350
4E
  3
A7
350
4F
  3
A8
350
50
  3
A9
350
51
  3
B0
350
52
  3
B1
350
53
  3
B2
350
54
  3
B3
350
55
  3
B4
350
56
  3
B5
350
57
  3
B6
350
58
  3
B7
350
59
  3
B8
350
5A
  3
B9
350
5B
  3
C0
350
5C
  3
C1
350
5D
  3
C2
350
5E
  3
C3
350
5F
  3
C4
350
60
  3
C5
350
61
  3
C6
350
62
  3
C7
350
63
  3
C8
350
64
  3
C9
350
65
  3
D0
350
66
  3
D1
350
67
  3
D2
350
68
  0
LAYOUT
  5
1E
102
{ACAD_REACTORS
330
1A
102
}
330
1A
100
AcDbPlotSettings
  1

  2
none_device
  4
Letter_(8.50_x_11.00_Inches)
  6

 40
6.35
 41
6.35
 42
6.35001
 43
6.35001
 44
215.9
 45
279.4
 46
0.0
 47
0.0
 48
0.0
 49
0.0
140
0.0
141
0.0
142
1.0
143
0.2595964695
 70
   688
 72
     0
 73
     1
 74
     1
  7

 75
     0
147
3.8521325118
148
81.0034171045
149
-37.6694648283
100
AcDbLayout
  1
_Right
 70
     1
 71
     1
 10
-3.2540101292
 20
1.418150679
 11
-0.398448965
 21
3.6247206695
 12
0.0
 22
0.0
 32
0.0
 14
1.0000000000E+20
 24
1.0000000000E+20
 34
1.0000000000E+20
 15
-1.0000000000E+20
 25
-1.0000000000E+20
 35
-1.0000000000E+20
146
0.0
 13
0.0
 23
0.0
 33
0.0
 16
1.0
 26
0.0
 36
0.0
 17
0.0
 27
1.0
 37
0.0
 76
     0
330
1B
331
1F4
  0
LAYOUT
  5
26
102
{ACAD_REACTORS
330
1A
102
}
330
1A
100
AcDbPlotSettings
  1

  2
none_device
  4
ANSI_A_(11.00_x_8.50_Inches)
  6

 40
6.35
 41
19.05
 42
6.35000508
 43
19.05000254
 44
279.4
 45
215.9
 46
223.1155147768
 47
-54.4259174375
 48
0.0
 49
0.0
140
0.0
141
0.0
142
2.2379126214
143
1.0
 70
  1696
 72
     0
 73
     0
 74
     1
  7

 75
     0
147
2.1577669492
148
101.9112699665
149
-37.6694648283
100
AcDbLayout
  1
_Top
 70
     1
 71
     2
 10
0.0
 20
0.0
 11
0.0
 21
0.0
 12
0.0
 22
0.0
 32
0.0
 14
-4.0122547231
 24
1.4830497964
 34
0.0
 15
0.8538870092
 25
3.5598214499
 35
0.0
146
0.0
 13
0.0
 23
0.0
 33
0.0
 16
1.0
 26
0.0
 36
0.0
 17
0.0
 27
1.0
 37
0.0
 76
     0
330
23
331
1F6
  0
LAYOUT
  5
22
102
{ACAD_REACTORS
330
1A
102
}
330
1A
100
AcDbPlotSettings
  1

  2
none_device
  4
Letter_(8.50_x_11.00_Inches)
  6

 40
6.35
 41
6.35
 42
6.35000508
 43
6.35000508
 44
215.9
 45
279.4
 46
0.0
 47
0.0
 48
0.0
 49
0.0
140
0.0
141
0.0
142
1.0
143
1.0
 70
  1712
 72
     0
 73
     0
 74
     0
  7

 75
     0
147
1.0
148
0.0
149
0.0
100
AcDbLayout
  1
Model
 70
     1
 71
     0
 10
0.0
 20
0.0
 11
12.0
 21
9.0
 12
0.0
 22
0.0
 32
0.0
 14
-4.0122547231
 24
1.4830497964
 34
0.0
 15
0.8538870092
 25
3.5598214499
 35
0.0
146
0.0
 13
0.0
 23
0.0
 33
0.0
 16
1.0
 26
0.0
 36
0.0
 17
0.0
 27
1.0
 37
0.0
 76
     0
330
1F
331
29
  0
MLINESTYLE
  5
18
102
{ACAD_REACTORS
330
17
102
}
330
17
100
AcDbMlineStyle
  2
Standard
 70
     0
  3

 62
   256
 51
90.0
 52
90.0
 71
     2
 49
0.5
 62
   256
  6
BYLAYER
 49
-0.5
 62
   256
  6
BYLAYER
  0
ACDBPLACEHOLDER
  5
F
102
{ACAD_REACTORS
330
E
102
}
330
E
  0
SCALE
  5
48
102
{ACAD_REACTORS
330
47
102
}
330
47
100
AcDbScale
 70
     0
300
1:1
140
1.0
141
1.0
290
     1
  0
SCALE
  5
49
102
{ACAD_REACTORS
330
47
102
}
330
47
100
AcDbScale
 70
     0
300
1:2
140
1.0
141
2.0
290
     0
  0
SCALE
  5
4A
102
{ACAD_REACTORS
330
47
102
}
330
47
100
AcDbScale
 70
     0
300
1:4
140
1.0
141
4.0
290
     0
  0
SCALE
  5
4B
102
{ACAD_REACTORS
330
47
102
}
330
47
100
AcDbScale
 70
     0
300
1:5
140
1.0
141
5.0
290
     0
  0
SCALE
  5
4C
102
{ACAD_REACTORS
330
47
102
}
330
47
100
AcDbScale
 70
     0
300
1:8
140
1.0
141
8.0
290
     0
  0
SCALE
  5
4D
102
{ACAD_REACTORS
330
47
102
}
330
47
100
AcDbScale
 70
     0
300
1:10
140
1.0
141
10.0
290
     0
  0
SCALE
  5
4E
102
{ACAD_REACTORS
330
47
102
}
330
47
100
AcDbScale
 70
     0
300
1:16
140
1.0
141
16.0
290
     0
  0
SCALE
  5
4F
102
{ACAD_REACTORS
330
47
102
}
330
47
100
AcDbScale
 70
     0
300
1:20
140
1.0
141
20.0
290
     0
  0
SCALE
  5
50
102
{ACAD_REACTORS
330
47
102
}
330
47
100
AcDbScale
 70
     0
300
1:30
140
1.0
141
30.0
290
     0
  0
SCALE
  5
51
102
{ACAD_REACTORS
330
47
102
}
330
47
100
AcDbScale
 70
     0
300
1:40
140
1.0
141
40.0
290
     0
  0
SCALE
  5
52
102
{ACAD_REACTORS
330
47
102
}
330
47
100
AcDbScale
 70
     0
300
1:50
140
1.0
141
50.0
290
     0
  0
SCALE
  5
53
102
{ACAD_REACTORS
330
47
102
}
330
47
100
AcDbScale
 70
     0
300
1:100
140
1.0
141
100.0
290
     0
  0
SCALE
  5
54
102
{ACAD_REACTORS
330
47
102
}
330
47
100
AcDbScale
 70
     0
300
2:1
140
2.0
141
1.0
290
     0
  0
SCALE
  5
55
102
{ACAD_REACTORS
330
47
102
}
330
47
100
AcDbScale
 70
     0
300
4:1
140
4.0
141
1.0
290
     0
  0
SCALE
  5
56
102
{ACAD_REACTORS
330
47
102
}
330
47
100
AcDbScale
 70
     0
300
8:1
140
8.0
141
1.0
290
     0
  0
SCALE
  5
57
102
{ACAD_REACTORS
330
47
102
}
330
47
100
AcDbScale
 70
     0
300
10:1
140
10.0
141
1.0
290
     0
  0
SCALE
  5
58
102
{ACAD_REACTORS
330
47
102
}
330
47
100
AcDbScale
 70
     0
300
100:1
140
100.0
141
1.0
290
     0
  0
SCALE
  5
59
102
{ACAD_REACTORS
330
47
102
}
330
47
100
AcDbScale
 70
     0
300
1/128" = 1'-0"
140
0.0078125
141
12.0
290
     0
  0
SCALE
  5
5A
102
{ACAD_REACTORS
330
47
102
}
330
47
100
AcDbScale
 70
     0
300
1/64" = 1'-0"
140
0.015625
141
12.0
290
     0
  0
SCALE
  5
5B
102
{ACAD_REACTORS
330
47
102
}
330
47
100
AcDbScale
 70
     0
300
1/32" = 1'-0"
140
0.03125
141
12.0
290
     0
  0
SCALE
  5
5C
102
{ACAD_REACTORS
330
47
102
}
330
47
100
AcDbScale
 70
     0
300
1/16" = 1'-0"
140
0.0625
141
12.0
290
     0
  0
SCALE
  5
5D
102
{ACAD_REACTORS
330
47
102
}
330
47
100
AcDbScale
 70
     0
300
3/32" = 1'-0"
140
0.09375
141
12.0
290
     0
  0
SCALE
  5
5E
102
{ACAD_REACTORS
330
47
102
}
330
47
100
AcDbScale
 70
     0
300
1/8" = 1'-0"
140
0.125
141
12.0
290
     0
  0
SCALE
  5
5F
102
{ACAD_REACTORS
330
47
102
}
330
47
100
AcDbScale
 70
     0
300
3/16" = 1'-0"
140
0.1875
141
12.0
290
     0
  0
SCALE
  5
60
102
{ACAD_REACTORS
330
47
102
}
330
47
100
AcDbScale
 70
     0
300
1/4" = 1'-0"
140
0.25
141
12.0
290
     0
  0
SCALE
  5
61
102
{ACAD_REACTORS
330
47
102
}
330
47
100
AcDbScale
 70
     0
300
3/8" = 1'-0"
140
0.375
141
12.0
290
     0
  0
SCALE
  5
62
102
{ACAD_REACTORS
330
47
102
}
330
47
100
AcDbScale
 70
     0
300
1/2" = 1'-0"
140
0.5
141
12.0
290
     0
  0
SCALE
  5
63
102
{ACAD_REACTORS
330
47
102
}
330
47
100
AcDbScale
 70
     0
300
3/4" = 1'-0"
140
0.75
141
12.0
290
     0
  0
SCALE
  5
64
102
{ACAD_REACTORS
330
47
102
}
330
47
100
AcDbScale
 70
     0
300
1" = 1'-0"
140
1.0
141
12.0
290
     0
  0
SCALE
  5
65
102
{ACAD_REACTORS
330
47
102
}
330
47
100
AcDbScale
 70
     0
300
1-1/2" = 1'-0"
140
1.5
141
12.0
290
     0
  0
SCALE
  5
66
102
{ACAD_REACTORS
330
47
102
}
330
47
100
AcDbScale
 70
     0
300
3" = 1'-0"
140
3.0
141
12.0
290
     0
  0
SCALE
  5
67
102
{ACAD_REACTORS
330
47
102
}
330
47
100
AcDbScale
 70
     0
300
6" = 1'-0"
140
6.0
141
12.0
290
     0
  0
SCALE
  5
68
102
{ACAD_REACTORS
330
47
102
}
330
47
100
AcDbScale
 70
     0
300
1'-0" = 1'-0"
140
12.0
141
12.0
290
     0
  0
ENDSEC
  0
EOF
